PrimaNota.ru - самый крупный в мире бесплатный архив песенных текстов, аккордов, табулатур и нот


Misc Unsigned Bands - Zac Price - Eleanor - бас-таба

Регистрация Запомнить меня
Войти через:  Facebook Google Twitter Vk Yandex Mail.ru

Misc Unsigned Bands - Zac Price - Eleanor - бас-таба

Печатать
Просмотров: 65
-------------------------------------------------------------------------------
                             Eleanor - Zac Price
-------------------------------------------------------------------------------
Tabbed by: Zac Price
E-mail: zacfish2@gmail.com

Tuning: BEADG (Standard 5-String)

INTRO:
G|--12--12--12-12---15--15--15-15---12--12--12-12-12-12--12--12-12-12-|
D|--10--10--10-10---10--10--10-10---10--10--10-10-10-10--10--10-10-10-|
A|--------------------------------------------------------------------|
E|--------------------------------------------------------------------|
B|--------------------------------------------------------------------|

G|--10--10--10-10----9---9---9--9--------12-|
D|--10--10--10-10---10--10--10-10------12---|
A|-----------------------------------10-----|
E|------------------------------------------|
B|------------------------------------------|

Verse:
G|----------------------------------------------|
D|----------------------------------------------|
A|----------------------------------------------| [x4]
E|--7--7-7-7------------------9--9-9--11--11-11-|
B|----------7777777-9--9--9-9-------------------|

Pre-Chorus:
G|---------------------------------------------------------------------------------|
D|---------------------------------------------------------------------------------|
A|---------------------------------------------------------------------------------| [x2]
E|-7777777777777777----------------------------------99999999-11|11|11|11|11|11|11-|
B|-----------------7777777777777777-9999999999999999-------------------------------|

Chorus:
G|-----------------------------------------------------|
D|-----------------------------------------------------|
A|-----------------------------------------------------| [x4]
E|-----------------------------------------------------|
B|-99999999-77777777-11|11|11|11|11|11|11|11-5555-7777-|

Chorus:
G|-----------------------
D|-----------------------
A|----------------------- [x2]
E|-----------------------
B|-999-777-11|11|11|-555-

Chorus:
G|--------------------------------------
D|--------------------------------------
A|-------------------------------------- [x2]
E|------------------------------777-999-
B|-999-777-11|11|11|-555-777-999--------

Verse:
G|----------------------------------------------|
D|----------------------------------------------|
A|----------------------------------------------| [x4]
E|--7--7-7-7------------------9--9-9--11--11-11-|
B|----------7777777-9--9--9-9-------------------|

Pre-Chorus:
G|---------------------------------------------------------------------------------|
D|---------------------------------------------------------------------------------|
A|---------------------------------------------------------------------------------|[x2]
E|-7777777777777777----------------------------------99999999-11|11|11|11|11|11|11-|
B|-----------------7777777777777777-9999999999999999-------------------------------|

Chorus:
G|-----------------------------------------------------|
D|-----------------------------------------------------|
A|-----------------------------------------------------| [x4]
E|-----------------------------------------------------|
B|-99999999-77777777-11|11|11|11|11|11|11|11-5555-7777-|

Chorus:
G|-----------------------
D|-----------------------
A|----------------------- [x2]
E|-----------------------
B|-999-777-11|11|11|-555-

Chorus:
G|--------------------------------------
D|--------------------------------------
A|-------------------------------------- [x2]
E|------------------------------777-999-
B|-999-777-11|11|11|-555-777-999--------

BRIDGE:
G|-------------------------------------------------|
D|-------------------------------------------------|
A|-------------------------------------------------| [x2]
E|-------------------------------------------------|
B|-9-9-9--7-7-7--5-5b-5--57-9-9-9--7-7-7-5-5-5--57-|

G|---------------------------------|
D|---------------------------------|
A|---------------------------------|
E|---------------------------------|
B|-9-9-9--7-7-7--11-11-11b--5-5-5b-|

G|-------------------------------|
D|-------------------------------|
A|-------------------------------|
E|------------------------9------|
B|-9-9-9--7-7-7-11---------------|

Verse
G|----------------------------------------------|
D|----------------------------------------------|
A|----------------------------------------------| [x4]
E|--7--7-7-7------------------9--9-9--11--11-11-|
B|----------7777777-9--9--9-9-------------------|

OUTRO:
G|-----------------------------------|
D|-----------------------------------|
A|-----------------------------------| [Let it ring]
E|-7---------------------------------|
B|-----------------------------------|



| /  slide up
| \  slide down
| b  bend
| h  hammer-on
| p  pull-off
| ~  vibrato
| +  harmonic
| x  Mute note
===============================================================================
Добавлено: 08.02.2016
Другие материалы по этой песне:
  • Аккорды и текст

Страница создана 08.02.2016
http://primanota.ru/misc-unsigned-bands/zac-price-eleanor-chords.htm
Привет, Гость.
Предлагаем пройти революционный курс по гитаре.
Подарок от PrimaNota.Ru, забирай!