PrimaNota.ru - самый крупный в мире бесплатный архив песенных текстов, аккордов, табулатур и нот


Misc Unsigned Bands - Valeria Mountain And The Eagles - Some People - бас-таба

Регистрация Запомнить меня
Войти через:  Facebook Google Twitter Vk Yandex Mail.ru

Misc Unsigned Bands - Valeria Mountain And The Eagles - Some People - бас-таба

Печатать
Просмотров: 53
Уроки эстрадного вокала в Санкт-Петербурге
Some People
Soundtrack from the 1962 musical by Valeria Mountain and The Eagles.
Bass performance Michael Brice. Tab by bass50611. Welcome to my tab.
More or less as original bass line. Note the pause dots in the verses
And the solo. Song is on You Tube. Comments at bass254@btinternet.com 

Intro:         (Break)             (Break)
G|------------------------------------
D|------------------------------------
A|-5--5-5--5-5----------5--5-5--5-5---
E|-------------7--------------------7-

Chorus 1:
G|---------------------------------------------------------------------
D|---4--7-----4--7--------4--------4-----4--7-------------4--7----4--7-
A|-5--------5--------2--5-----2--5-----5---------4--7---5-------5------
E|---------------------------------------------5-----------------------

G|-------------------------------------------------------------------------
D|---4--7-----4--7--------4--------4-----4--7-------------4--7-------------
A|-5--------5--------2--5-----2--5-----5---------4--7---5-------5--3--2----
E|---------------------------------------------5-------------------------5-

Verse 1:                                              .    .
G|-------------------------------------------------------------------
D|-------------------------------------------------------------------
A|---2--5----2--5----7--10-------------4--7----4--7---5----3----4--7-
E|-3-------3-------8--------8--8-7-6-5-------5----------------5------

Bridge 1:
G|---------------------------------------------------------------------
D|---4--7-----4--7--------4--------4-----4--7--------------------------
A|-5--------5--------2--5-----2--5-----5---------4--7-----6--9----6--9-
E|---------------------------------------------5--------7-------7------

G|-------------------------------------
D|-------9-------------4--7------------
A|-7--10------4--7---5-------5--3--2---
E|----------5------------------------5-

Solo:                                                 .    .
G|-------------------------------------------------------------------
D|-------------------------------------------------------------------
A|---2--5----2--5----7--10-------------4--7----4--7---5----3----4--7-
E|-3-------3-------8--------8--8-7-6-5-------5----------------5------

G|---------------------------------------------------------------------
D|---4--7-----4--7--------4--------4-----4--7--------------------------
A|-5--------5--------2--5-----2--5-----5---------4--7-----6--9----6--9-
E|---------------------------------------------5--------7-------7------

                                 (Break)              (Break)
G|--------------------------------------------------------------
D|-------9------------------------------------------------------
A|-7--10------4--7---5--5-5--5-5----------5--5-5--5-5-----------
E|----------5--------------------7--------------------7---------

Key Change:    (Break)              (Break)
G|-------------------------------------
D|-------------------------------------
A|-6--6-6--6-6-----------6--6-6--6-6---
E|-------------8---------------------8-

Chorus 2:
G|--------------------------------------------------------------------
D|---5--8-----5--8-------5--------5-----5--8-------------5--8----5--8-
A|-6--------6-------3--6-----3--6-----6---------5--8---6-------6------
E|--------------------------------------------6-----------------------

G|----------------------------------------------------------------------
D|---5--8----5--8-------5--------5-----5--8-------------5--8------------
A|-6-------6-------3--6-----3--6-----6---------5--8---6-------6--4--3---
E|-------------------------------------------6------------------------6-

Verse 2:                                              .    .
G|------------------------------------------------------------------
D|------------------------------------------------------------------
A|---3--6----3--6----8--11-------------5--8----5--8---6----4---5--8-
E|-4-------4-------9--------9--9-8-7-6-------6---------------6------

Bridge 2:
G|-----------------------------------------------------------------------
D|---5--8-----5--8--------5--------5-----5--8----------------------------
A|-6--------6--------3--6-----3--6-----6---------5--8-----7--10----7--10-
E|---------------------------------------------6--------8--------8-------

G|-----------------
D|-------9---------
A|-8--11------5--8-
E|----------6------

Outro:
G|-----------------------------------------------------------6-------------
D|---5--8----5--8--------5--------5----5--8----5--8-------5------5----5--8-
A|-6-------6--------3--6-----3--6----6-------6-------3--6------6----6------
E|-------------------------------------------------------------------------

                         (Song Fades Out)
G|-------------------6-----
D|----------------5------5-
A|-6--6-5-4--3--6------6---
E|-------------------------



Добавлено: 08.02.2016
Другие материалы по этой песне:
  • Аккорды и текст

Страница создана 08.02.2016
http://primanota.ru/misc-unsigned-bands/valeria-mountain-and-eagles-some-people-chords.htm
Привет, Гость.
Предлагаем пройти революционный курс по гитаре.
Подарок от PrimaNota.Ru, забирай!