PrimaNota.ru - самый крупный в мире бесплатный архив песенных текстов, аккордов, табулатур и нот


Misc Unsigned Bands - Kiev - Falling Bough - бас-таба

Регистрация Запомнить меня
Войти через:  Facebook Google Twitter Vk Yandex Mail.ru

Misc Unsigned Bands - Kiev - Falling Bough - бас-таба

Печатать
Просмотров: 139
-------------------------------------------------------------------------------
                             KIEV - Falling Bough
-------------------------------------------------------------------------------
Tabbed by: Ethan Lamirande
E-mail: tenacious.me@hotmail.com

The bass line really makes the song. The song has excellent texture and 
layering but the bass line just puts it over the edge. 

When I saw there was no tab for the song, or for any Kiev song, 
I figured I'd give it a whirl. 

It's far from perfect but it's foot in the door. (The solo and some of the fills especially need some work)
Listen to the song for the timing and Enjoy!


Tuning: Standard Tuning

Intro:
Bass starts at 0:14
G|--------------------------------------------------------|
D|---------------------------------9-------9h11-----------|
A|---7----7---11~-9~---7---77-7--11-11-9-9----------------|
E|-------7-7-----------------7---------------------7------|

G|--------------------------------------------------------|
D|---------------------------------9-------9h11-----------|
A|--7----7----11~--99--7---77-7--11-11-9-9----------------|
E|--------77----------7------7----------------------------|

Verse: 0:35 X 1
G|--------------------------------------------------------|
D|---------------------------------9-------9h11-----------|
A|---7----7---11~-9~---7---77-7--11-11-9-9----------------|
E|-------7-7-----------------7---------------------7------|

G|--------------------------------------------------------|
D|---------------------------------9-------9h11-----------|
A|--7----7----11~--99--7---77-7--11-11-x-9----------------|
E|--------77----------7------7----------------------------|

Chorus: 0:56
G|----------99----88----------------------|
D|-------------99-------------------------|
A|-------7----7--7------------------------|
E|-0~-----0------------04-4~--02-2~-------|

G|----------99----8--- -------------------|
D|-------------99--9--------------4-------|
A|-------7----7--7---------------4-4------|
E|-0~-----0------------04-4~--02----------|

G|----------99----88----------------------|
D|-------------99-------------------------|
A|-------7----7--7------------------------|
E|-0~-----0------------04-4~--02x2~-------|

G|----------99----8--- -------------------|
D|-------------99--9------------4---------|
A|-------7----7--7-------------4-4--------|
E|-0~-----0------------04-4~--x------x----|

Verse: 1:17  X 1
G|--------------------------------------------------------|
D|---------------------------------9-------9h11-----------|
A|---7----7---11~-9~---7---77-7--11-11-9-9----------------|
E|-------7-7-----------------7---------------------7------|

G|--------------------------------------------------------|
D|---------------------------------9------/11-9-----------|
A|--7----7----11~--99--7---77-7--11-11-9-9-----11p7-------|
E|--------77----------7------7----------------------------|

Pre Chorus: 1:38
G|--------------------------------------*-*---------------|
D|----------------------------------9---1111-9------------|
A|---7/-----11----9----7---77-7---11-11----------11////---|
E|--7-----------------7------7----------------------------|

Chorus: 1:48

G|----------99----88----------------------|
D|-------------99-------------------------|
A|-------7----7--7------------------------|
E|-0~-----0------------04-4~--02-2~-------|

G|----------99----8-----------------------|
D|-------------99--9-------------4--------|
A|-------7----7--7--------------4-4-------|
E|-0~-----0------------04-4~--x-----------|

G|----------99----88----------------------|
D|-------------99-------------------------|
A|-------7----7--7------------------------|
E|-0~-----0------------04-4~--02x2~-------|

G|----------99----8-----------------------|
D|-------------99--9-----------/11-11p9---|
A|-------7----7--7----------9-7-----------|
E|-0~-----0------------04-4~--------------|

G|----------99----88----------------------|
D|-------------99-------------------------|
A|-------7----7--7------------------------|
E|-0~-----0------------04-4~--02x2~-------|

G|----------99----8-----------------------|
D|-------------99--9-----------/11-11p9---|
A|-------7----7--7----------9-7-----------|
E|-0~-----0------------04-4~--------------|

Bridge: 2:20 (Variation on the Chorus)
G|----------99-----8--------------------99----8-----------|
D|-9-----------99-9----9-------------------99--11---------|
A|---11-------7--7-------11---------------7--7------------|
E|--------------------------------------------------------|

G|----------99-----8-------------------99----8---------------|
D|-9-----------99-9----9------------------99--11-------9h11--|
A|---11-------7--7-------11------9~~-----7--7--------11------|
E|-----------------------------------------------------------|
  2:40 (Timings super weird here but these are the right notes, transitions very smooth)
G|-------------------------------------|
D|-------------------------------------|
A|-44~~/--/44/---------------9999------|
E|------22----22-22x22x2/999/----------|

Chorus: 2:50
G|----------99----88----------------------|
D|-------------99-------------------------|
A|-------7----7--7------------------------|
E|-0~-----0------------04-4~--02-2~-------|

G|----------99----8--- -------------------|
D|-------------99--7------------4---------|
A|-------7----7--7-------------4-4--------|
E|-0~-----0------------04-4~--------------|

G|----------99----88----------------------|
D|-------------99-------------------------|
A|-------7----7--7------------------------|
E|-0~-----0------------04-4~--02x2~-------|

G|----------99----8--- -------------------|
D|-------------99--7------------4---------|
A|-------7----7--7-------------4-4--------|
E|-0~-----0------------04-4~--x------x----|

Bass Solo: 3:11
G|----------9-------------------------------------|
D|-----9h11--11p9--9----------9-------------------|
A|---11----------11-11-9----11-11~--7/9h11p9~97---|
E|-0~--------------------12-----------------------|

G|---------99----8-------------------9p8----------|
D|------------99--9-------------9-11----9h11------|
A|-7-----7---7--7-------7----11-------------------|
E|--0~----0-----------7--7------------------------|

G|----99----88-------------------|
D|-------99----------------------|
A|------7--7---------------------|
E|-0--------------044---02~2-2---|

G|----99----88-------------------|
D|-------99-----------------4----|
A|------7--7---------------4-4---|
E|-0--------------044---02~------|

Outro 3:32                                                         X2
G|-------99----88-----------------------99----8---------------------|
D|----------99-----------------------------99--9-----------4--------|
A|----7----7--7---------------------7-----7--7------------4-4-------|
E|-0--------------044---022-----0------------------044--------------|


| /  slide up
| \  slide down
| h  hammer-on
| p  pull-off
| ~  Let Ring
| +  harmonic
| x  Mute note
===============================================================================
Добавлено: 29.03.2015
Другие материалы по этой песне:
  • Аккорды и текст

Страница создана 29.03.2015
http://primanota.ru/misc-unsigned-bands/kiev-falling-bough-chords.htm
Привет, Гость.
Предлагаем пройти революционный курс по гитаре.
Подарок от PrimaNota.Ru, забирай!