PrimaNota.ru - самый крупный в мире бесплатный архив песенных текстов, аккордов, табулатур и нот


Misc Unsigned Bands - Dying Cats - Spunky Monkeys - бас-таба

Регистрация Запомнить меня
Войти через:  Facebook Google Twitter Vk Yandex Mail.ru

Misc Unsigned Bands - Dying Cats - Spunky Monkeys - бас-таба

Печатать
Просмотров: 119
-------------------------------------------------------------------------------
                             SONG NAME - Band Name
-------------------------------------------------------------------------------
Tabbed by: 
E-mail: 

Tuning:


G|---------------------------------------------------------------------------|
D|-----------------12--------------------------------------------------------|
A|------11---12-14--------------11---11h12p11h12p11--------------------------|
E|-0-12---------------------0-12--------------------12-----------------------|

G|---------------------------------------------------------------------------|
D|-----------------12-------14---12------------------------------------------|
A|------11---12-14--------------------14-12-11-------------------------------|
E|-0-12----------------------------------------10----------------------------|

G|---------------------------------------------------------------------------|
D|-----------------12--------------------------------------------------------|
A|------11---12-14--------------11---11h12p11h12p11--------------------------|
E|-0-12---------------------0-12--------------------12-----------------------|

G|---------------------------------------------------------------------------|
D|-----------------12--------------------------------------------------------|
A|------11---12-14----------------------------5--7---------------------------|
E|-0-12----------------------0----4---5----7---------------------------------|  x2

G|---------------------------------------------------------------------------|
D|----------------------------------------------------------5-6-7------------|
A|-2-2-5b---2-0-2-----------------2-2-5b---2-0-2---5--6--7-------------------|
E|----------------5-5---4b--0------------------------------------------------|

G|---------------------------------------------------------------------------|
D|---------------------------------------------------------------------------|
A|-2-2-5b---2-0-2-----------------2-2-5b---2-0-2--------------5--7-----------|
E|----------------5-5---4b--0---------------------0--4--5--7-----------------|  x2


| /  slide up
| \  slide down
| h  hammer-on
| p  pull-off
| ~  vibrato
| +  harmonic
| x  Mute note
===============================================================================
Добавлено: 29.03.2015
Другие материалы по этой песне:
  • Аккорды и текст

Страница создана 29.03.2015
http://primanota.ru/misc-unsigned-bands/dying-cats-spunky-monkeys-chords.htm
Привет, Гость.
Предлагаем пройти революционный курс по гитаре.
Подарок от PrimaNota.Ru, забирай!