PrimaNota.ru - самый крупный в мире бесплатный архив песенных текстов, аккордов, табулатур и нот


Misc Unsigned Bands - The Tornadoes - Globetrotter - бас-таба

Регистрация Запомнить меня
Войти через:  Facebook Google Twitter Vk Yandex Mail.ru

Misc Unsigned Bands - The Tornadoes - Globetrotter - бас-таба

Печатать
Просмотров: 72
Уроки эстрадного вокала в Санкт-Петербурге
Globetrotter
The Tornados follow up single to their 1962 number 1 Telstar.
Reached number 5 in Jan 63. Written and produced by the late
Joe Meek. Bassist Heinz Burt (born Heinz Henry Georg Schwartze)
Of Just like Eddie fame. Tab by bass50611.
Straight forward instrumental.
Any comments its bass254@btinternet.com

Intro:
G|-----------------------------4-------------------------------4---|
D|--------------------------5-7--5--------------------------5-7--5-|
A|-3-33-3---0-00-0---5-55-5---------3-33-3---0-00-0--5-55-5--------|
E|-----------------------------------------------------------------|

Verse:                                      (PLAY ALL OF VERSE x 2)
G|--------------------------------------------------------------|
D|------------------------------------------------3-----5-3-2-0-|
A|-3-3----3-3---7-7----7-7----------7------7---5-5--5-----------|
E|----3------3------7------7----5-5----5-5----------------------|
                                           End 1st Time:
G|--------------------------------------| |------------4---|
D|--------------------------------------| |--5-5----5-7--5-|
A|-3-3---3-3-------7-----7---5-5---5-5--| |------5---------|
E|----3-----3---5-5---5-5-------5-----5-| |----------------|

  End 2nd Time:
G|-----------------|
D|-5-3-2-0---5-55--|
A|-----------------|
E|-----------------|

Bridge: (PLAY THIS x 2)
G|-------------------------------------------------------------------|
D|-3-33----3-33---3-33----3-33---------------------------------------|
A|-----3--------------3---------3-3---3-3---3-3---3-1-0---7-7---7-7--|
E|---------------------------------3-----3-----3-------3-----7-----7-|
                                           2nd TIME
G|--------------------------------------| |-----------4---|
D|---------------------------5-5---5-5--| |-5-5----5-7--5-|
A|----7-----7---5-5----5-5------5-----5-| |----5----------|
E|-5-5---5-5-------5------5-------------| |---------------|

Repeat Verse x 1 with this ending           Verse(Key Change PLAY x2)
G|----------22222222-3333-4444-5555-6666-| |------------------------|
D|-55555555------------------------------| |-3-3---3-3---7-7---7-7--|
A|---------------------------------------| |----3-----3-----7-----7-|
G|---------------------------------------| |------------------------|

G|----------------3---5-3-2-0--------------------------------------|
D|-------------5-5-5-----------3-3---3-3----------------5-5---5-5--|
A|-5-5---5-5----------------------3-----3---5-5---5-5------5-----5-|
E|----5-----5----------------------------------5-----5-------------|
                  2nd TIME
G|-------------| |-----------------------|
D|---------0-2-| |-3-3---3-3---5-5--5-5--|
A|-3-3---33----| |----3-----3-----5----5-|
E|-----3-------| |-----------------------|

Outro:       (REPEAT TO FADE/END)
G|------------------------|
D|-3-33-------5-55----0-2-|
A|-------5-55-------33----|
E|------------------------|
Добавлено: 16.08.2013
Другие материалы по этой песне:
  • Аккорды и текст

Страница создана 16.08.2013
http://primanota.ru/misc-unsigned-bands/the-tornadoes-globetrotter-chords.htm
Привет, Гость.
Предлагаем пройти революционный курс по гитаре.
Подарок от PrimaNota.Ru, забирай!