PrimaNota.ru - самый крупный в мире бесплатный архив песенных текстов, аккордов, табулатур и нот


Misc Unsigned Bands - Townhouses - Indian Rock - бас-таба, видео

Регистрация Запомнить меня
Войти через:  Facebook Google Twitter Vk Yandex Mail.ru

Misc Unsigned Bands - Townhouses - Indian Rock - бас-таба, видео

Печатать
Просмотров: 57
        00:12-00:39


for this first part, bar the first fret on the D and G strings with your left
hand, and tap all the notes with your right hand.

G| -5p0--------5p0------------5p0---------10-8-8/10\8\6-------------|
D| ----5p0-5/6----5p0-5/6\5-0-----5p0-5/6---------------------------|
A| -----------------------------------------------------------------|
E| -----------------------------------------------------------------|


00:37-01:13

G| ------------------------------------------------------------|  [repeating]
D| -----------------------------9-9-9-4-4-4-9-9-9-4-4-4--------|
A| --4-4-4-7-7-9-9-4-4-4-7-7-9-9-------------------------------|
E| ------------------------------------------------------------|


01:13-01:41

G| ---------------------------------------------------------------|  [repeating]
D| ---------------------------------------------------------------|
A| -4-4-5-4-4-4-4-5-4-/9-12-9-9-9-9-12-9--------------------------|
E| ---------------------------------------------------------------|



01:41-02:14 [bar the first fret and tap again]

G| -5p0--------5p0-------5p0-------5p0------5p0-----------------------|
D| ----5p0-5/6----5p0-5/6---5p0-5/6---5p0-5/6---5p0-------------------|
A| -------------------------------------------------------------------|
E| -------------------------------------------------------------------|


G| -8p0--------8p0---------8p0--------8p0---------8p0--------------------|
D| ----8p0-8/10----8p0-8/10---8p0--8/10---8p0-8/10----8p0----------------|
A| ----------------------------------------------------------------------|
E| ----------------------------------------------------------------------|



02:14-02:52

G| ---------------------------------------------------------------|  [repeating]
D| --------------------------------------9-9-9-4-4-4-9-9-9-4-4-4--|
A| -4-4-5-4-4-4-4-5-4-/9-12-9-9-9-9-12-9--------------------------|
E| ---------------------------------------------------------------|

02:52-03:40 [follow the rhythm         03:40-04:07
for the slides and sustain the 9]

G| -----------------------|-----------------------------------------|
D| -----------------------|-----------------------------------------|
A| -4/9-4/9---------------|--4-4-4--4-4-4--9-9-9--9-9-9-------------|
E| -----------------------|-----------------------------------------|

02:14-02:52

G| ---------------------------------------------------------------|  [repeating]
D| ---------12-9------------------------7-4---------7-4-----------|
A| -9-9-9-9------12-9-9-9-9-9-9---4-4-4-----7-4-4-4-----7---------|
E| ---------------------------------------------------------------|
Добавлено: 19.06.2013
Другие материалы по этой песне:
  • Аккорды и текст

Страница создана 19.06.2013
http://primanota.ru/misc-unsigned-bands/townhouses-indian-rock-chords.htm
Привет, Гость.
Предлагаем пройти революционный курс по гитаре.
Подарок от PrimaNota.Ru, забирай!