PrimaNota.ru - самый крупный в мире бесплатный архив песенных текстов, аккордов, табулатур и нот


Misc Unsigned Bands - Townhouses - Thick Of Winter - бас-таба

Регистрация Запомнить меня
Войти через:  Facebook Google Twitter Vk Yandex Mail.ru

Misc Unsigned Bands - Townhouses - Thick Of Winter - бас-таба

Печатать
Просмотров: 62
00:00-00:18

G| --------------------------------5------5---------------------------|
D| -3-3-3--3-3-3---------------3-3-3--3-3-3------5------5-------------|
A| ---------------3-3-3--3-3-3---------------3-3-3--3-3-3-------------|
E| -------------------------------------------------------------------|


00:18-00:35

G| ---------------------------------------------------------------|
D| -3-3-3-3-3-3-3333--------------3-------------------------------|
A| -------------------3-3-3-3-3-3-3-------------------------------|
E| ---------------------------------------------------------------|


00:35-00:52

G| --------------------------------5------5---------------------------|
D| -3-3-3--3-3-3---------------3-3-3--3-3-3------5------5-------------|
A| ---------------3-3-3--3-3-3---------------3-3-3--3-3-3-------------|
E| -------------------------------------------------------------------|


00:52-01:13

G| ---------------------------------------------------------------|  [repeating]
D| -33-3-3-33-33-3-3-33-------------------------------------------|
A| ---------------------33-3-3-33-33-3-3-33-----------------------|
E| ---------------------------------------------------------------|


01:13-01:31

G| ---------------------------7---------7-------------------------|  [repeating]
D| -33333333--3333333---------------------------------------------|
A| --------------------333333---3333333---------------------------|
E| ---------------------------------------------------------------|


01:31-01:51

G| ---------------7--------------5--------------5-------------5---|  [repeating]
D| --3-3-333-33-3---3-3-333-33-3---------------5-------------5----|
A| --------------------------------3-3-333-33-3--3-3-333-33-3-----|
E| ---------------------------------------------------------------|


01:51-End

G| ---------------------------------------------------------------|  [repeating]
D| -3-3-33-3-33-3-33-33-------------------------------------------|
A| ---------------------3-3-33-3-33-3-3-33------------------------|
E| ---------------------------------------------------------------|
Добавлено: 12.09.2013
Другие материалы по этой песне:
  • Аккорды и текст

Страница создана 12.09.2013
http://primanota.ru/misc-unsigned-bands/townhouses-thick-of-winter-chords.htm
Привет, Гость.
Предлагаем пройти революционный курс по гитаре.
Подарок от PrimaNota.Ru, забирай!