PrimaNota.ru - самый крупный в мире бесплатный архив песенных текстов, аккордов, табулатур и нот


Misc Unsigned Bands - The Velvelettes - Needle In A Haystack - бас-таба

Регистрация Запомнить меня
Войти через:  Facebook Google Twitter Vk Yandex Mail.ru

Misc Unsigned Bands - The Velvelettes - Needle In A Haystack - бас-таба

Печатать
Просмотров: 56
Needle In A Haystack
The Velvelettes, formed in 1961 at Western Michigan University,
released this Norman Whitfield song in 1964 reaching number 21
on the Billboard Hot 100 but never charted in UK. Tab by bass50611
Bass Performance James Jamerson.  Tremendous song hope you enjoy
playing along to it. Any comments its bass254@btinternet.com

        Well Well I Once Believed .......All Fellas Were Nice...But Girls
Intro:               Verse:
G|-------------------|----------------------------------------------------|
D|--NO Bass ON INTRO-|----------------------------------------------------|
A|--DRUMS AND GUITAR-|-------1h3-3-3-3-3-3-3-3-3------1h3-3-3-3-3-3-3-3-3-|
E|-------------------|------------------3------------------------3--------|
 Listen To me    Take My Advice     Girls Youd Better get etc etc       .
G|-------------------------------------------------------------------------|
D|-------------------------------------------------------------------------|
A|-1h3-3-3-3-3-3-3-3-3----1h3-3-3-3-3-3-3-3--------------------------------|
E|------------3--------------------3-----------3-3-3-2-1-1-1-2-3-3-3-2---1-|

Chorus:                                                          .
G|-----------------------------------------------------------------|
D|-----------------------------------------------------------------|
A|-1h3-3-3-3-3-3-3-3---1h3-3-3-3---3---1h3---1h3---1h3-------------|
E|----------3-------------------33---------------------3-3-3-3---3-|

Repeat Verse And Chorus:

Sax Solo: (Repeat Verse)

Chorus 2:                                  .
G|-------------------------------------------|
D|-------------------------------------------|
A|-1h3-3-3-3-3-3-3-3---1h3-3-3-3-------------|
E|----------3--------------------3-3-3-3---3-|

Repeat Verse:

Final Chorus and Outro:      (REPEAT TO FADE/END)
G|---------------------------------------|
D|---------------------------------------|
A|-1h3-3-3-3-3-3-3-3---1h3-3-3-3-3-3-3-3-|
E|----------3-------------------3--------|
Добавлено: 22.08.2013
Другие материалы по этой песне:
  • Аккорды и текст

Страница создана 22.08.2013
http://primanota.ru/misc-unsigned-bands/the-velvelettes-needle-in-a-haystack-chords.htm
Привет, Гость.
Предлагаем пройти революционный курс по гитаре.
Подарок от PrimaNota.Ru, забирай!