PrimaNota.ru - самый крупный в мире бесплатный архив песенных текстов, аккордов, табулатур и нот


Misc Unsigned Bands - The Living Tombstone - Discord - бас-таба

Регистрация Запомнить меня
Войти через:  Facebook Google Twitter Vk Yandex Mail.ru

Misc Unsigned Bands - The Living Tombstone - Discord - бас-таба

Печатать
Просмотров: 298
Discord Bass Tab
by The Living Tombstone
Standard Tuning
by slapathebass

Intro
E-4-4---2-2-4---------------2-4-4---2-2---------------|
A-------------2-4-4---2-2-1-------------2-6-4-------6-|
D---------------------------------------------2---4---|
G-----------------------------------------------------|

Verse 1
E-4-4---2-2-4---------------2-4-4---2-2-----------------7-4-4--|
A-------------2-4-4---2-2-1-------------2-6-4-------6-4--------|
D---------------------------------------------2---4------------|
G--------------------------------------------------------------|

E---------------4-4---------------4-----------------|
A-6-6---6-7-7-------2-6-4-4---4-4---7-6-6---6-4-2-1-|
D-----4---------------------------------------------|
G---------------------------------------------------|

Chorus (2x)
E-4-4---2-2-4---------------2-4-4---2-2-----------------7-|
A-------------2-4-4---2-2-1-------------2-6-4-------6-4---|
D---------------------------------------------2---4-------|
G---------------------------------------------------------|

Bridge (2x)
E-4-4---2-2-4---------------2-4-4---2-2-----------------7-|
A-------------2-4-4---2-2-1-------------2-6-4-------6-4---|
D---------------------------------------------2---4-------|
G---------------------------------------------------------|

Verse 2
E-4-4---2-2-4---------------2-4-4---2-2-----------------7-4-4--|
A-------------2-4-4---2-2-1-------------2-6-4-------6-4--------|
D---------------------------------------------2---4------------|
G--------------------------------------------------------------|

E---------------4-4---------------4-----------------|
A-6-6---6-7-7-------2-6-4-4---4-4---7-6-6---6-4-2-1-|
D-----4---------------------------------------------|
G---------------------------------------------------|

Chorus (2x)
E-4-4---2-2-4---------------2-4-4---2-2-----------------7-|
A-------------2-4-4---2-2-1-------------2-6-4-------6-4---|
D---------------------------------------------2---4-------|
G---------------------------------------------------------|

Bridge (2x)
E-4-4---2-2-4---------------2-4-4---2-2-----------------7-|
A-------------2-4-4---2-2-1-------------2-6-4-------6-4---|
D---------------------------------------------2---4-------|
G---------------------------------------------------------|

Synth Solo (Bass Line)(4x)
E-4-4---2-2-4---------------2-4-4---2-2-----------------7-|
A-------------2-4-4---2-2-1-------------2-6-4-------6-4---|
D---------------------------------------------2---4-------|
G---------------------------------------------------------|

Bridge (2x)
E-4-4---2-2-4---------------2-4-4---2-2-----------------7-|
A-------------2-4-4---2-2-1-------------2-6-4-------6-4---|
D---------------------------------------------2---4-------|
G---------------------------------------------------------|

Discord, I'm howlin' at the moon
And sleepin' in the middle of a summer afternoon
Discord, whatever did we do
To make you take our world away?

Discord, are we your prey alone,
Or are we just a stepping stone for taking back the throne?
Discord, we won't take it anymore
So take your tyranny away!

Last Note!!!
E-4-----|
A-------|
D-------|
G-------|

Help for this song? go to this URL for my youtube cover
http://www.youtube.com/watch?v=YEreQT5se-o
Добавлено: 20.07.2013
Другие материалы по этой песне:
  • Аккорды и текст

Страница создана 20.07.2013
http://primanota.ru/misc-unsigned-bands/the-living-tombstone-discord-chords.htm
Привет, Гость.
Предлагаем пройти революционный курс по гитаре.
Подарок от PrimaNota.Ru, забирай!