PrimaNota.ru - самый крупный в мире бесплатный архив песенных текстов, аккордов, табулатур и нот


Misc Unsigned Bands - The Parents - Telekinesis - бас-таба

Регистрация Запомнить меня
Войти через:  Facebook Google Twitter Vk Yandex Mail.ru

Misc Unsigned Bands - The Parents - Telekinesis - бас-таба

Печатать
Просмотров: 45
Intro + Verse (x4)

E|--------------------------------------------------------------|
A|-4-----4-----4-------4-3-2-4-----4-----4------4-3-2-----------|
D|--------------------------------------------------------------|
G|---2-2---2-2---2-2-2---------2-2---2-2---2-2-2----------------|

'Girl I can read all the signs...' (x4)

E|--------------------------------------------------------------|
A|-4-----4-----4-------4-3-2-4-----4-----4------4-3-2-----------|
D|--------------------------------------------------------------|
G|---2-2---2-2---2-2-2---------2-2---2-2---2-2-2----------------|

CHORUS - (x2)

E|--------------------------------------------------------------|
A|--------------------------------------------------------------|
D|-----------------2-2-2-0-0-2h0--------------5/2-2-2-0-0-2h0---|
G|-2-2-2-0-0-0-2h4----------------2-2-2-0-0-0-------------------|

Verse (x8)

Chorus (x2)

Verse (x1)

Bridge

E|----------------------------------------------|
A|----------------4-3-2---------------4-3-2-----|
D|----------------------------------------------|
G|-2-0h2-2-0h2-2--------2-0h2-2-0h2-2-----------|

E|----------------------------------------------------|
A|----------------4-3-2-------------------------------|
D|----------------------------------------------------|
G|-2-0h2-2-0h2-2--------2-0h2-2-0h2-2--2/5/14-14-14/0-|

(x2)

Chorus

End
Добавлено: 18.07.2013
Другие материалы по этой песне:
  • Аккорды и текст

Страница создана 18.07.2013
http://primanota.ru/misc-unsigned-bands/the-parents-telekinesis-chords.htm
Привет, Гость.
Предлагаем пройти революционный курс по гитаре.
Подарок от PrimaNota.Ru, забирай!