PrimaNota.ru - самый крупный в мире бесплатный архив песенных текстов, аккордов, табулатур и нот


Misc Unsigned Bands - Syith - Yosemite Falls - таба

Регистрация Запомнить меня
Войти через:  Facebook Google Twitter Vk Yandex Mail.ru

Misc Unsigned Bands - Syith - Yosemite Falls - таба

Печатать
Просмотров: 51
-------------------------------------------------------------------------------
                             Yosemite Falls - Syith
-------------------------------------------------------------------------------
Tabbed by: ThorChicken
E-mail: privateawesome00@gmail.com

Tuning: Standard (EADGBE)

Riff (After every "Yosemite Falls")

e|------------------------------------|
B|------------------------------------|
G|------------------------------------|
D|---2--2-2-2/5-5-5--7--7-7-7/9-9-9---|
A|---2--2-2-2/5-5-5--7--7-7-7/9-9-9---|
E|---0--0-0-0/3-3-3--5--5-5-5/7-7-7---|

Verse:

"Spray shoots up, we're in hyperdrive"

e|-------------------|
B|-------------------|
G|-------------------|
D|---2-2-2---5-5-5---|
A|---2-2-2---5-5-5---|
E|---0-0-0---3-3-3---|

"Bring her around, the nose plunges high"

e|-------------------|
B|-------------------|
G|-------------------|
D|---7-7-7---9-9-9---|
A|---7-7-7---9-9-9---|
E|---5-5-5---7-7-7---|

(Repeat all verse)

Riff (After third Yosemite Falls)

e|----------------------------------------|
B|----------10-10h12p10-10h12-12p10-------|
G|---9-9-12-------------------------12\9--|
D|----------------------------------------|
A|----------------------------------------|
E|----------------------------------------|

Play this twice

e|---12-12-10----10--------------10~10-12------|
B|------------12----10h12--12-12---------------|
G|-----------------------------------------9-9-|
D|---------------------------------------------|
A|---------------------------------------------|
E|---------------------------------------------|

Play this twice

Verse 1:

Spray shoots up, we're in hyperdrive,

Bring her around, the nose plunges high,

Steering's gone, we're buffeted around,

like a crab in a lake when sonar sounds.

Rock in the middle, clear on the side,

I have to navigate this boat or we die.

Power-lust at its breaking point,

I behold the might of Yosemite Falls

Verse 2:

Lightning flashes in a clear blue sky,

A blast of water radiates by.

Reflections dance on a surface broken up,

I know I can't ever bring it to a stop.

Pounding waves and rapids of pain

Through and through glory will be my gain.

I'm trespassing in a giant's hall,

as I approach the brink of Yosemite Falls

Verse 3:

Snapshot, I'm going over the edge...

Falling down, I'm over my head...

Smack and slam, but I'm almost through...

Into the sunlight, it hits me hard...I've conquered...

Yosemite Falls

************************************
Добавлено: 19.10.2015
Другие материалы по этой песне:
  • Аккорды и текст

Страница создана 19.10.2015
http://primanota.ru/misc-unsigned-bands/syith-yosemite-falls-chords.htm
Привет, Гость.
Предлагаем пройти революционный курс по гитаре.
Подарок от PrimaNota.Ru, забирай!