PrimaNota.ru - самый крупный в мире бесплатный архив песенных текстов, аккордов, табулатур и нот


Misc Unsigned Bands - The Empty Woods - Grain In The Soil - таба, видео

Регистрация Запомнить меня
Войти через:  Facebook Google Twitter Vk Yandex Mail.ru

Misc Unsigned Bands - The Empty Woods - Grain In The Soil - таба, видео

Печатать
Просмотров: 142
Уроки эстрадного вокала в Санкт-Петербурге
-------------------------------------------------------------------------------
                             Grain in the Soil - The Empty Woods
-------------------------------------------------------------------------------
Tabbed by: Simon M
E-mail:

Tuning: Actually in Dmaj7. Open D but high E is a C#

Intro:

C#|------------------------------0---------------0------------------------------------|
 A|-----------------------------------0----------------0------------------------------|
F#|----------------------------------------0-----------------0------------------------|
 D|------0------0-----0------0------0---------0-----0-----------0---------------------|
 A|-----------------------------------------------------------------------------------|
 D|---0-----0------0------0------0------0--------0--------0---------------------------|


C#|--0---------------0------------------------------------|
 A|--------0----------------0-----------------------------|
F#|------------0-----------------0------------------------|
 D|-----0---------0-----0-----------0---------------------|
 A|-------------------------------------------------------|
 D|--0------0--------0--------0---------------------------|

  Verse:

C#|--5-----------------3----------------0--------0----------------0--------------------|
 A|--------4----------------------2-----------0--------0---------------------0---------|
F#|--------------0-----------0------------------------------0-----------0--------------|
 D|-----0-----------0-----0----------0-----0--------0----------0-----0----------0------|
 A|------------------------------------------------------------------------------------|
 D|--0--------0--------0-------0--------0--------0--------0-------0--------0-----------|

C#|--5-----------------3----------------0--------0----------------0--------------------|
 A|--------4----------------------2-----------0--------0---------------------0---------|
F#|--------------0-----------0------------------------------0-----------0--------------|
 D|-----0-----------0-----0----------0-----0--------0----------0-----0----------0------|
 A|------------------------------------------------------------------------------------|
 D|--0--------0--------0-------0--------0--------0--------0-------0--------0-----------|

Transition:

C#|---5-----3-----0----3--0---5-----3-----0----3--0---0-----------------0----------------------|
 A|---------------------------------------------------------0-----------------0----------------|
F#|---------------------------------------------------------------0-----------------0----------|
 D|------0-----0-----0-----0-----0-----0-----0-----0-----0-----------0-----0-----------0-------|
 A|--------------------------------------------------------------------------------------------|
 D|---5-----5-----5-----5-----5-----5-----5-----5-----0--------0--------0--------0-------------|

Verse:

C#|--5-----------------3----------------0--------0----------------0--------------------|
 A|--------4----------------------2-----------0--------0---------------------0---------|
F#|--------------0-----------0------------------------------0-----------0--------------|
 D|-----0-----------0-----0----------0-----0--------0----------0-----0----------0------|
 A|------------------------------------------------------------------------------------|
 D|--0--------0--------0-------0--------0--------0--------0-------0--------0-----------|

C#|--5-----------------3----------------0--------0----------------0--------------------|
 A|--------4----------------------2-----------0--------0---------------------0---------|
F#|--------------0-----------0------------------------------0-----------0--------------|
 D|-----0-----------0-----0----------0-----0--------0----------0-----0----------0------|
 A|------------------------------------------------------------------------------------|
 D|--0--------0--------0-------0--------0--------0--------0-------0--------0-----------|

Transition:

C#|---5-----3-----0----3--0---5-----3-----0----3--0---0-----------------0----------------------|
 A|---------------------------------------------------------0-----------------0----------------|
F#|---------------------------------------------------------------0-----------------0----------|
 D|------0-----0-----0-----0-----0-----0-----0-----0-----0-----------0-----0-----------0-------|
 A|--------------------------------------------------------------------------------------------|
 D|---5-----5-----5-----5-----5-----5-----5-----5-----0--------0--------0--------0-------------|

Bridge:

C#|----5------------------8------------------12-------------------12---------------------------|
 A|----------7------------------9--------------------12------------------12--------------------|
F#|----------------0------------------0---------------------0-------------------0--------------|
 D|-------0-----------0------0-----------0-------0-------------0------0------------0-----------|
 A|--------------------------------------------------------------------------------------------|
 D|----7--------7---------9--------9---------12---------12--------12--------12-----------------|

C#|----12-------------------12------------------0-----------------0----------------------------|
 A|-----------12-------------------12-----------------0-----------------0----------------------|
F#|-------------------0-------------------0-----------------0-----------------0----------------|
 D|--------0-------------0------0------------0-----0-----------0-----0-----------0-------------|
 A|--------------------------------------------------------------------------------------------|
 D|----12---------12--------12--------12--------0--------0--------0--------0-------------------|

Solo:

C#|--5-----------------3----------------0--------0----------------0--------------------|
 A|--------4----------------------2-----------0--------0---------------------0---------|
F#|--------------0-----------0------------------------------0-----------0--------------|
 D|-----0-----------0-----0----------0-----0--------0----------0-----0----------0------|
 A|------------------------------------------------------------------------------------|
 D|--0--------0--------0-------0--------0--------0--------0-------0--------0-----------|

C#|--5-----------------3----------------0--------0----------------0--------------------|
 A|--------4----------------------2-----------0--------0---------------------0---------|
F#|--------------0-----------0------------------------------0-----------0--------------|
 D|-----0-----------0-----0----------0-----0--------0----------0-----0----------0------|
 A|------------------------------------------------------------------------------------|
 D|--0--------0--------0-------0--------0--------0--------0-------0--------0-----------|

C#|--5-----------------3----------------0--------0----------------0--------------------|
 A|--------4----------------------2-----------0--------0---------------------0---------|
F#|--------------0-----------0------------------------------0-----------0--------------|
 D|-----0-----------0-----0----------0-----0--------0----------0-----0----------0------|
 A|------------------------------------------------------------------------------------|
 D|--0--------0--------0-------0--------0--------0--------0-------0--------0-----------|

C#|--5-----------------3----------------0--------0----------------0--------------------|
 A|--------4----------------------2-----------0--------0---------------------0---------|
F#|--------------0-----------0------------------------------0-----------0--------------|
 D|-----0-----------0-----0----------0-----0--------0----------0-----0----------0------|
 A|------------------------------------------------------------------------------------|
 D|--0--------0--------0-------0--------0--------0--------0-------0--------0-----------|

Verse:

C#|--5-----------------3----------------0--------0----------------0--------------------|
 A|--------4----------------------2-----------0--------0---------------------0---------|
F#|--------------0-----------0------------------------------0-----------0--------------|
 D|-----0-----------0-----0----------0-----0--------0----------0-----0----------0------|
 A|------------------------------------------------------------------------------------|
 D|--0--------0--------0-------0--------0--------0--------0-------0--------0-----------|

C#|--5-----------------3----------------0--------0----------------0--------------------|
 A|--------4----------------------2-----------0--------0---------------------0---------|
F#|--------------0-----------0------------------------------0-----------0--------------|
 D|-----0-----------0-----0----------0-----0--------0----------0-----0----------0------|
 A|------------------------------------------------------------------------------------|
 D|--0--------0--------0-------0--------0--------0--------0-------0--------0-----------|

Transition:

C#|---5-----3-----0----3--0---5-----3-----0----3--0---0-----------------0----------------------|
 A|---------------------------------------------------------0-----------------0----------------|
F#|---------------------------------------------------------------0-----------------0----------|
 D|------0-----0-----0-----0-----0-----0-----0-----0-----0-----------0-----0-----------0-------|
 A|--------------------------------------------------------------------------------------------|
 D|---5-----5-----5-----5-----5-----5-----5-----5-----0--------0--------0--------0-------------|

Outro:

C#|----5------------------8------------------12-------------------12---------------------------|
 A|----------7------------------9--------------------12------------------12--------------------|
F#|----------------0------------------0---------------------0-------------------0--------------|
 D|-------0-----------0------0-----------0-------0-------------0------0------------0-----------|
 A|--------------------------------------------------------------------------------------------|
 D|----7--------7---------9--------9---------12---------12--------12--------12-----------------|

C#|----12-------------------12------------------0-----------------0----------------------------|
 A|-----------12-------------------12-----------------0-----------------0----------------------|
F#|-------------------0-------------------0-----------------0-----------------0----------------|
 D|--------0-------------0------0------------0-----0-----------0-----0-----------0-------------|
 A|--------------------------------------------------------------------------------------------|
 D|----12---------12--------12--------12--------0--------0--------0--------0-------------------|

C#|--0---------------0-----------------------0-------------|
 A|--------0----------------0----------------0-------------|
F#|------------0-----------------0-----------0-------------|
 D|-----0---------0-----0-----------0--------0-------------|
 A|------------------------------------------0-------------|
 D|--0------0--------0--------0--------------0-------------|



************************************

| /   slide up
| \   slide down
| h   hammer-on
| p   pull-off
| ~   vibrato
| +   harmonic
| x   Mute note
| b   Bend
| pb  Pre-bend
| br  Bend release
| pbr Pre-bend release
| brb Bend release bend

************************************
Добавлено: 19.10.2015
Другие материалы по этой песне:
  • Аккорды и текст

Страница создана 19.10.2015
http://primanota.ru/misc-unsigned-bands/empty-woods-grain-in-soil-chords.htm
Привет, Гость.
Предлагаем пройти революционный курс по гитаре.
Подарок от PrimaNota.Ru, забирай!