PrimaNota.ru - самый крупный в мире бесплатный архив песенных текстов, аккордов, табулатур и нот


Misc Unsigned Bands - The No-shows - Stand My Ground Lead - таба, видео

Регистрация Запомнить меня
Войти через:  Facebook Google Twitter Vk Yandex Mail.ru

Misc Unsigned Bands - The No-shows - Stand My Ground Lead - таба, видео

Печатать
Просмотров: 74
Written by Matt McNally
Based off of the early demo, released December 20th, 2014

Verse 1:
e|------------------------------------------|
B|------------------------------------------|
G|------------------------------------------|
D|------------9/10--------x3-----10h12h10-9-|      x2
A|------------------------------------------|
E|------------------------------------------|   

Chorus:  
e|------------------------------------------------------------------------------------|
B|------------------------------------------------------------------------------------|
G|------------------------------------------------------------------------------------|
D|----------101099--------------10h12h10-10-99----------------------------------------|
A|----------------1010----------------------------------8h10h8877-888----7777-7h8h7---|
E|-----------------------------------------------------------------------------------8|

Verse 2:
Part 1
e|------------------------------------------|
B|------------------------------------------|
G|------------------------------------------|
D|------------9/10--------x3-----10h12h10-9-|     
A|------------------------------------------|
E|------------------------------------------|
Part 2
e|----------------------------------------------------------------------------------------------|
B|----------------------------------------------------------------------------------------------|
G|------9h10-12-10h9---------------9h10-12h10h9------------------9h10h9-----------------9h10/12-|
D|--9h10-------------10--------9h10------------9--------7/9-9h10---------------7/9-9h10---------|
A|----------------------------------------------------------------------------------------------|
E|----------------------------------------------------------------------------------------------|

Repeat Chorus

Bass Solo

Drum Solo

Guitar Solo:
e|------------------------------------/8--7-5-8-8/10--8-7h8h7-10-10b12-10-8-1010b12-10h8h10-5-7|
B|---------------------------------------------------------------------------------------------|
G|------5---7-7b9-7-75-----5-------------------------------------------------------------------|
D|/7--7---7-----------7--7---75-5-7------------------------------------------------------------|
A|-------------------------------7-------------------------------------------------------------|
E|---------------------------------------------------------------------------------------------|

Repeat Chorus

Outro
Добавлено: 19.10.2015
Другие материалы по этой песне:
  • Аккорды и текст

Страница создана 19.10.2015
http://primanota.ru/misc-unsigned-bands/no-shows-stand-my-ground-lead-chords.htm
Привет, Гость.
Предлагаем пройти революционный курс по гитаре.
Подарок от PrimaNota.Ru, забирай!