PrimaNota.ru - самый крупный в мире бесплатный архив песенных текстов, аккордов, табулатур и нот


Misc Unsigned Bands - Teens React To Theme - таба, видео

Регистрация Запомнить меня
Войти через:  Facebook Google Twitter Vk Yandex Mail.ru

Misc Unsigned Bands - Teens React To Theme - таба, видео

Печатать
Просмотров: 100
Уроки эстрадного вокала в Санкт-Петербурге
-------------------------------------------------------------------------------
                           Teens React To Theme   - Fine Bros
-------------------------------------------------------------------------------
Tabbed by:sir-rex-a-lot

Tuning:standard

I have too much time on my hands... But I love this show so hey, enjoy!

    E5       Eb/E5          Dbm       A            E
e|-----------------------------------------------------|
B|------------------------------5----------------------|
G|-9-9-9-----9-9-9----------6-6------------6-6-6-------|
D|-9-9-------9-9------------6-6-------7-7-7-----9-7----|
A|-7-7---7~--6-6---6-7-6-7--4-4---4~---------------7/--|
E|-----------------------------------------------------|

************************************

| /   slide up
| \   slide down
| h   hammer-on
| p   pull-off
| ~   vibrato
| +   harmonic
| x   Mute note
| b   Bend
| pb  Pre-bend
| br  Bend release
| pbr Pre-bend release
| brb Bend release bend

************************************
Добавлено: 19.10.2015
Другие материалы по этой песне:
  • Аккорды и текст

Страница создана 19.10.2015
http://primanota.ru/misc-unsigned-bands/teens-react-to-theme-chords.htm
Привет, Гость.
Предлагаем пройти революционный курс по гитаре.
Подарок от PrimaNota.Ru, забирай!