PrimaNota.ru - самый крупный в мире бесплатный архив песенных текстов, аккордов, табулатур и нот


Misc Unsigned Bands - Syith - Fly - таба, видео

Регистрация Запомнить меня
Войти через:  Facebook Google Twitter Vk Yandex Mail.ru

Misc Unsigned Bands - Syith - Fly - таба, видео

Печатать
Просмотров: 101
-------------------------------------------------------------------------------
                             Fly - SYITH
-------------------------------------------------------------------------------
Tabbed by: ThorChicken
E-mail: privateawesome00@gmail.com

Tuning: Standard EADGBE

Chords: B F# A E

Play during verse and chorus
e|---------------------------------------------------------------------------|
B|---------------------------------------------------------------------------|
G|---------------------------------------------------------------------------|
D|---9-9---4-4-4---7-7-7---2-2-2---------------------------------------------|
A|---9-9---4-4-4---7-7-7---2-2-2---------------------------------------------|
E|---7-7---2-2-2---5-5-5---0-0-0---------------------------------------------|

Verse 1:

From heartland, to the fire of the setting sun,

Seattle, down in Tampa Bay,

California, Direct to New York,

Nashville, we're gonna make you roll,

Go!

Brothers, alone yet not far apart,

Father, scream at the sky,

A girl, weighed down by a broken heart,

Soldier! You're afraid yet prepared to die,

Chorus:

Welcome to your world! Welcome to the ride,

Got to know how to fall, before you learn how to

Fly!

Verse 2:

Mother, you're always by their side,

Preacher, you taught them not to lie,

Boy, hurts and starts to cry,

Enemies will eternally survive,

Chorus:

Welcome to your world! Welcome to the ride,

Got to know how to fall, before you learn how to

Fly!

Bridge:

Hurt me and hurt me again,

Lover!

Cry!

e|----------------------------------------------------------12----12-14--------|
B|---7--7-5h7-9b--7-10-13b--13b-12--9b-7--5h7-9b--7-10-13b-----14--------------|
G|-----------------------------------------------------------------------------|
D|-----------------------------------------------------------------------------|
A|-----------------------------------------------------------------------------|
E|-----------------------------------------------------------------------------|

e|---12h14-17--14-17-20b--20b-19-17-14--14-12----------------------------------|
B|--------------------------------------------13b-12--12-9b-9-7--5h7-9b--7-9b--|
G|-----------------------------------------------------------------------------|
D|-----------------------------------------------------------------------------|
A|-----------------------------------------------------------------------------|
E|-----------------------------------------------------------------------------|

e|-----------------------------------------------------------------------------|
B|---13b--12h14p12-9b----------------------------------------------------------|
G|-----------------------------------------------------------------------------|
D|---------------------9-9---4-4-4---7-7-7---2-2-2-----------------------------|
A|---------------------9-9---4-4-4---7-7-7---2-2-2-----------------------------|
E|---------------------7-7---2-2-2---5-5-5---0-0-0-----------------------------|

Chorus:

Welcome to your world! Welcome to the ride,

Got to know how to fall, before you learn how to

Fly!

************************************

| /   slide up
| \   slide down
| h   hammer-on
| p   pull-off
| b   Bend

************************************
Добавлено: 19.10.2015
Другие материалы по этой песне:
  • Аккорды и текст

Страница создана 19.10.2015
http://primanota.ru/misc-unsigned-bands/syith-fly-chords.htm
Привет, Гость.
Предлагаем пройти революционный курс по гитаре.
Подарок от PrimaNota.Ru, забирай!