PrimaNota.ru - самый крупный в мире бесплатный архив песенных текстов, аккордов, табулатур и нот


Misc Unsigned Bands - Syith - Plague - таба, видео

Регистрация Запомнить меня
Войти через:  Facebook Google Twitter Vk Yandex Mail.ru

Misc Unsigned Bands - Syith - Plague - таба, видео

Печатать
Просмотров: 103
-------------------------------------------------------------------------------
                             Plague - SYITH
-------------------------------------------------------------------------------
Tabbed by: ThorChicken
E-mail: privateawesome00@gmail.com

Tuning: Standard EADGBE

Play this at the beginning
e|---7~--5-2~--5~--2-0~--0---------|
B|-------------------------3p2p0---|
G|---------------------------------| 4X
D|---------------------------------|
A|---------------------------------|
E|---------------------------------|

Em                 Bm           D             A
A little splash of color in the darkness of a day,
Em         Bm     D                  A
A flash of yellow splits through the gray,
Em        Bm      D        A
Untouched beauty, unspoken lies,
Em       Bm   D                     A
A fallen star plummets through your skies, oh

Play this once
e|---7~--5-2~--5~--2-0~--0---------|
B|-------------------------3p2p0---|
G|---------------------------------|
D|---------------------------------|
A|---------------------------------|
E|---------------------------------|

Em   Bm                D                A
Love hurts, unraveling ties in the expectation of reality,
Em   Bm                  D                         A
Love burns, and all it implies for the long sought dream of immortality,
Em      Bm                        D                                     A
A petal falls, but too little too late, they're all gone, there's no on left to retaliate,
Em      Bm                           D                          A
Crushed stem, leaves weave their way down, all that's left is a broken figure,
A
On the ground

Play twice, then play during verse
e|---0-----0-----0---2-----2-----2---2-2-2-2-2-2-2-2-0-0-0-0-0-0-0-0---|
B|---0-----0-----0---3-----3-----3---3-3-3-3-3-3-3-3-2-2-2-2-2-3-3-2---|
G|---0-----0-----0---4-----4-----4---2-2-2-2-2-2-2-2-2-2-2-2-2-2-2-2---|
D|---2-2-2-2-2-2-2-2-4-4-4-4-4-4-4-4-0-----0-----0---2-2-2-2-2-2-2-2---| 6X
A|---2-2-2-2-2-2-2-2-2-2-2-2-2-2-2-2-0-----0-----0---0-0-0-0-0-0-0-0---|
E|---0-0-0-0-0-0-0-0-2-2-2-2-2-2-2-2-----------------------------------|

Em             Bm    D               A
A shadow in an alley, a voice on the breeze,
Em          Bm     D                 A
A face in a window, a whisper in the trees, oh,
Em          Bm      D              A
With hearts broken, we'll make our stand,
Em               Bm           D               A
Warriors die, victorious, I'm still that same man,

e|---7~--5-2~--5~--2-0~--0---------|
B|-------------------------3p2p0---|
G|---------------------------------|
D|---------------------------------|
A|---------------------------------|
E|---------------------------------|

Em       Bm                  D                 A
Mind for eyes in a bitter display of unbridled rage with dire consequence,
Em         Bm                    D                   A
Bridge the gap, more like unholy wars, our modern crusade gives us confidence,
Em   Bm                 D                             A
Hope leaves us in fiery hell, repercussions shake the wall of life and death,
Em    Bm                       D                A
Blood spilled, mixing with the rain, we run for cover, this could be my last breath,

e|---7~--5-2~--5~--2-0~--0---------|
B|-------------------------3p2p0---|
G|---------------------------------| 4X
D|---------------------------------|
A|---------------------------------|
E|---------------------------------|

Em    Bm       D            A
Heir apparent, none left to claim,
Em       Bm           D             A
Life and liberty, are licked by the flames, ooh,
Em    Bm    D          A
Smoke rises, as dreams fall,
Em        Bm             D          A
Mankind's plague, is the fear in us all, yeah,

Play open Em, barre Bm, open D and open A for verses, play barre Em, barre Bm, open D and 
barre A for choruses and fills.

https://syithrockon3.wordpress.com/

************************************
| p   pull-off
| ~   vibrato
************************************
Добавлено: 06.09.2015
Другие материалы по этой песне:
  • Аккорды и текст

Страница создана 06.09.2015
http://primanota.ru/misc-unsigned-bands/syith-plague-chords.htm
Привет, Гость.
Предлагаем пройти революционный курс по гитаре.
Подарок от PrimaNota.Ru, забирай!