PrimaNota.ru - самый крупный в мире бесплатный архив песенных текстов, аккордов, табулатур и нот


Misc Unsigned Bands - Syith - Mach 214 - таба

Регистрация Запомнить меня
Войти через:  Facebook Google Twitter Vk Yandex Mail.ru

Misc Unsigned Bands - Syith - Mach 214 - таба

Печатать
Просмотров: 79
-------------------------------------------------------------------------------
                            Mach 214 - Syith
-------------------------------------------------------------------------------
Tabbed by: ThorChicken
E-mail: privateawesome00@gmail.com

https://syithrockon3.wordpress.com/

Tuning: Standard (EADGBE)

e|-------------------------------------|
B|-------------------------------------|
G|-------------------------------------|
D|---2-x----14\7\5--2-x----14\7\5--2---| {Play during all of song unless otherwise noted}
A|---2-x----14\7\5--2-x----14\7\5--2---|
E|---0-x----12\5\3--0-x----12\5\3--0---|

MACH 214

Verse 1:

Bring it

Bring it now

Bring it down

Bring it around

Verse 2:

Father

Mother's eyes

Hey brother

Sister!

e|---------------------------------------|
B|---------------------------------------|
G|---x--x--x--x--x--x--x--x--x-x--x--x---|
D|---x--x--x--x--x--x--x--x--x-x--x--x---| {Play during bridge}
A|---x--x--2--x--2--x--x--x--x-x--x--x---|
E|---x--x--0--x--x--x--x--x--2p0--x--x---|

Bridge:

Junky hype brother in the place of space, with a no-good father turned away for hate

Drivers on the I gettin' turned around, for the palace in the city in a bombed out town

Shove it out fast, gonna drown that round, shut it up bring it down, baby wreck that sound

Mach 214 in '73, got-a cover our bases when we wrap that tree

Outro:

Louder

Louder

Louder

Louder

Louder

Louder!

Yeah!!

************************************

| \   slide down

************************************
Добавлено: 19.10.2015
Другие материалы по этой песне:
  • Аккорды и текст

Страница создана 19.10.2015
http://primanota.ru/misc-unsigned-bands/syith-mach-214-chords.htm
Привет, Гость.
Предлагаем пройти революционный курс по гитаре.
Подарок от PrimaNota.Ru, забирай!