PrimaNota.ru - самый крупный в мире бесплатный архив песенных текстов, аккордов, табулатур и нот


Misc Unsigned Bands - Soar Onward - Spirit Of George - таба

Регистрация Запомнить меня
Войти через:  Facebook Google Twitter Vk Yandex Mail.ru

Misc Unsigned Bands - Soar Onward - Spirit Of George - таба

Печатать
Просмотров: 57
Standard E tuning. No capo.

(Intro chord (D) )Strum repeatedly.
It can also be used throughot the entire song, especially as fills between the staves.

E|------0--------|
B|------3--------|
G|------2--------|
D|------0--------|
A|---------------|
E|---------------|


Stave 1:

E|---------------------------5--------5--------3-----5--3--------------3-----------|
B|--6--5-----6--5---------------6--------6--------6--------6-----6--5-----6--5--3--|
G|--------5--------5---------------5--------5-----------------5--------------------|
D|---------------------------------------------------------------------------------|
A|---------------------------------------------------------------------------------|
E|---------------------------------------------------------------------------------|

Stave 2:

E|------------8--6--5--------------5-----10--8-------------|
B|--3--5--6---------------8--6--8-----3---------11--10--8--|
G|---------------------------------------------------------|
D|---------------------------------------------------------|
A|---------------------------------------------------------|
E|---------------------------------------------------------|

Stave 3:

E|--------------------------------------------------------------|
B|--------------------------------------------------------------|
G|-----------------5--7--------------------------------5--------|
D|-----------5--7--------7--5--7--5--5--5--7--8--7--5-----7--5--|
A|--5--5--8-----------------------------------------------------|
E|--------------------------------------------------------------|

Stave 4:

E|------------------------------------------------------------------------------------------|
B|------------------------------------------------------------------------------5--6--5-----|
G|-----------------5--7---------------------------------------------------5--7-----------7--|
D|-----------5--7--------7--5--7--5--5--7--8--7--5------------5--5--7--8--------------------|
A|--5--5--8-----------------------------------------8--5------------------------------------|
E|------------------------------------------------------------------------------------------|

Stave 5:

E|--5---------------5----|
B|------------6--8-------|
G|-----7--------------7--|
D|-----------------------|
A|-----------------------|
E|-----------------------|

Stave 6:

E|--14--14--14--14--17--17--14---------------------------------------------------------------|
B|--15--15--15--15--17--17--15----14--14--14--14--17--17--14----12--12--12--12--15--15--12\--|
G|--------------------------------14--14--14--14--16--16--14----12--12--12--12--14--14--12\--|
D|-------------------------------------------------------------------------------------------|
A|-------------------------------------------------------------------------------------------|
E|-------------------------------------------------------------------------------------------|
Добавлено: 11.07.2015
Другие материалы по этой песне:
  • Аккорды и текст

Страница создана 11.07.2015
http://primanota.ru/misc-unsigned-bands/soar-onward-spirit-of-george-chords.htm
Привет, Гость.
Предлагаем пройти революционный курс по гитаре.
Подарок от PrimaNota.Ru, забирай!