PrimaNota.ru - самый крупный в мире бесплатный архив песенных текстов, аккордов, табулатур и нот


Misc Unsigned Bands - Rock Songs - таба, видео

Регистрация Запомнить меня
Войти через:  Facebook Google Twitter Vk Yandex Mail.ru

Misc Unsigned Bands - Rock Songs - таба, видео

Печатать
Просмотров: 79
-------------------------------------------------------------------------------
                                Simple rock
-------------------------------------------------------------------------------


Tuning: standard

e|---------------------------------------------------------------------------|.
B|-------------------------------------------------------------8-------------|
G|---------------------------------------------------------------------------|.  Intro
D|----------------------------0----------------------------------------------|
A|--------------------------------------8------------------0-----------------|
E|------2----5--------5----------------------12--------------------9---------|

e|---------------6------------------------------6----------------------------|
B|-----------------------------------7---------------------------------------|
G|---------------------------------------------------------------------------|
D|---------------------------------------------------------------------------|
A|---------------------------------------------------------------------------|
E|---------------------------------------------------------------------------|

               Repeat this twice.   /\
                                    ||

e|-----------------------------------------------8----------0---------------------|
B|----------------xxx-------------------------------------------------------------|
G|----------------------------------------------------17--------------------------|
D|-----------------------------------6--------------------------------------------|
A|-----------------------------------------------------------8--------------------|
E|--------------------------------------------------------------------------------|

e|---------------------------------------------------------------------------------|
B|--------------------18~---------------------3------------------------------------|
G|---------------------------------------------------------------------------------|
D|--------------------------------------------------0------1-----------------------|
A|-----------------------------------------------------------------9---------------|
E|---------------------------------------12~---------------------------------------|

e|---------------------------------------------------------------------------------|
B|--------------------------2----5--------6-----------7----------------------------|
G|-----------------------------------------------------------9---------7-----------|
D|---------------------------------------------------------------------------------|
A|----------------------------------------------7----------------------------------|
E|--------------------------------------------------------------------------1------|

e|--------------------------------1-----------------------------------------------|
B|---------------------------1---------3---7--------------------------------------|
G|-------------------------------------------------18-----------------------------|
D|--------------------------------------------------------------------------------|
A|--------------------------------------------------------------------------------|
E|--------------------------------------------------------------------------------|

e|-----------------------14--------------------------------------16----------------|
B|------------------------------------------7--------------------------------------|
G|---------------------------------------------------------------------------------|
D|--------------------------12-----------------------------------------------------|
A|------------------------------------------------------9--------------------------|
E|---------------------------------------------------------------------------------|

e|-----------14-------------------------------7-----------------------------------|
B|-----------------------6--------------------------------------------------------|
G|-----------------------------------------------------------------14-------------|
D|--------------------------------------------------------------------------------|
A|--------------------------------------------------------------------------------|
E|--------------------------------------------------------------------------------|


************************************

| /   slide up
| \   slide down
| h   hammer-on
| p   pull-off
| ~   vibrato
| +   harmonic
| x   Mute note
| b   Bend
| pb  Pre-bend
| br  Bend release
| pbr Pre-bend release
| brb Bend release bend

************************************
Добавлено: 11.07.2015
Другие материалы по этой песне:
  • Аккорды и текст

Страница создана 11.07.2015
http://primanota.ru/misc-unsigned-bands/rock-songs-chords.htm
Привет, Гость.
Предлагаем пройти революционный курс по гитаре.
Подарок от PrimaNota.Ru, забирай!