PrimaNota.ru - самый крупный в мире бесплатный архив песенных текстов, аккордов, табулатур и нот


Misc Unsigned Bands - Shadows Band - Hinne Manche Ladcha - бас-таба

Регистрация Запомнить меня
Войти через:  Facebook Google Twitter Vk Yandex Mail.ru

Misc Unsigned Bands - Shadows Band - Hinne Manche Ladcha - бас-таба

Печатать
Просмотров: 52
tuning: standard
g,d,a,e from down to top.


verse 1:
g|------------------------------------|
d|----------12----------------14------|
a|----0-9\10--10---12--0-11\12--12----| x4times
e|--7---------------------------------|


g|-------------------------------------------|
d|------------------12--------------14-------|
a|--------5---0-9\10-----0-11\12--12---------| x3times
e|--7--0-3-----------------------------------|



g|---------------------------------|
d|---------------------------------|
a|--------5------------------------|
e|--7--0-3---7-7-7-3-3-3-5-5-------|

chorus: hinne manche ladcha,hinne manche ladcha.
g|---------------------------------|
d|---------------------------------|
a|---------------------------------|x4 times
e|--7---3---5---5-5-5-5------------|


the music section:
g|-----------------------------------|
d|----------12----------------14-----|
a|----0-9\10--10---12--0-11\12--12---| 
e|--7--------------------------------|

g|------------------------------14---|
d|----------12----------------14-----|
a|----0-9\10--10---12--0-11\12-------| 
e|--7--------------------------------|

verse 2:
g|-----------------------------------|
d|----------12----------------14-----|
a|----0-9\10--10---12--0-11\12--12---| x4times
e|--7--------------------------------|

g|-------------------------------------------|
d|------------------12--------------14-------|
a|--------5---0-9\10-----0-11\12--12---------| x3times
e|--7--0-3-----------------------------------|

g|---------------------------------|
d|---------------------------------|
a|---------5-----------------------|
e|--7--0-3----7-7-7-3-3-3-5-5------|

chorus: hinne manche ladcha,hinne manche ladcha.
g|---------------------------------|
d|---------------------------------|
a|---------------------------------|x4 times
e|--7---3---5---5-5-5-5------------|

the music section:
g|---------------------------------|
d|----------12--------------14-----|
a|----0-9\10-----12--0-11\12-------|x2 times
e|--7------------------------------|

g|------------------------------------|
d|----------12-----------------14-14--|
a|----0-9\10--10----12--0-11\12-------| x2 times
e|--7---------------------------------|

g|--------------------------------14-------|
d|------------------12----------14---------|
a|--------5---0-9\10-----0-11\12-----------| x2 times
e|--7--0-3---------------------------------|


g|---------------------------------|
d|---------------------------------|
a|--------5------------------------|
e|--7--0-3---7-7-7-7-7-7-7-7-------|


verse 3:

g|-----------------------------------|
d|----------12-----------------14----|
a|----0-9\10--10---12--0-11\12--12---| x4times
e|--7--------------------------------|

g|-------------------------------------------|
d|------------------12--------------14-------|
a|--------5---0-9\10-----0-11\12--12---------| x3times
e|--7--0-3-----------------------------------|

g|---------------------------------|
d|---------------------------------|
a|---------5-----------------------|
e|--7--0-3----7-7-7-3-3-3-5-5------|

chorus: hinne manche ladcha,hinne manche ladcha.
g|---------------------------------|
d|---------------------------------|
a|---------------------------------|x4 times
e|--7---3---5---5-5-5-5------------|

ha ha haha. ha ha haha section:
g|---------------------------------|
d|---------------------------------|
a|---------------------------------|x4 times
e|--7---3---5---5-5-5-5------------|

thank you. if any mistake in this,plz feel free to do tell the correction. my 
first ever shadows tab.
and do like us on facebook.
https://www.facebook.com/pages/Mrityumantra-The-Gorkha-Metals/218553271516088
Добавлено: 24.11.2013
Другие материалы по этой песне:
  • Аккорды и текст

Страница создана 24.11.2013
http://primanota.ru/misc-unsigned-bands/shadows-band-hinne-manche-ladcha-chords.htm
Привет, Гость.
Предлагаем пройти революционный курс по гитаре.
Подарок от PrimaNota.Ru, забирай!