PrimaNota.ru - самый крупный в мире бесплатный архив песенных текстов, аккордов, табулатур и нот


Misc Unsigned Bands - Shropshire - Makin Love A Little More Funky - бас-таба

Регистрация Запомнить меня
Войти через:  Facebook Google Twitter Vk Yandex Mail.ru

Misc Unsigned Bands - Shropshire - Makin Love A Little More Funky - бас-таба

Печатать
Просмотров: 78
Уроки эстрадного вокала в Санкт-Петербурге
THESE ARE THE BASS TABS TO SHROPSHIRE'S "MAKIN' LOVE (A LITTLE MORE FUNKY)"       ENJOY.

INTRO/VERSES
   s p sp p sps s p s pspsp    p   s p
G|---9--7-6--x-----------------7h9---12-|
D|----------------0---5-7-7/9-----------|
A|-7---x----x-x-x---7--x-x---------x----|
E|--------------------------------------|

   s p sp p sps s p s p s p s  p
G|---9--7-6--x-----------------3/-12----|
D|----------------0---5---7-------------|
A|-7---x----x-x-x---7---x---x-----------|
E|--------------------------------------|




CHORUS:
   s sp p  s p s s psp   p p   s sp p  s p s s ss p
G|----9-7----7---------------|----9-7----7---------------|
D|-----------------7-7h9-7-5-|--------------------7h9----|
A|-7-x-----0---0-7--x--------|-7-x-----0---0-7-xx--------|
E|---------------------------|---------------------------|




h = hammer on
p = pull off
/ = slide up
s = slap
p = pop
x = mute
Добавлено: 30.08.2013
Другие материалы по этой песне:
  • Аккорды и текст

Страница создана 30.08.2013
http://primanota.ru/misc-unsigned-bands/shropshire-makin-love-a-little-more-funky-chords.htm
Привет, Гость.
Предлагаем пройти революционный курс по гитаре.
Подарок от PrimaNota.Ru, забирай!