PrimaNota.ru - самый крупный в мире бесплатный архив песенных текстов, аккордов, табулатур и нот


Misc Unsigned Bands - Shields - Mezzanine - бас-таба

Регистрация Запомнить меня
Войти через:  Facebook Google Twitter Vk Yandex Mail.ru

Misc Unsigned Bands - Shields - Mezzanine - бас-таба

Печатать
Просмотров: 46
Mezzanine
Shields
Tabbed by thefletch13

Standard Tuning (E A D G)

4/4 time
Q = 125

  (0:06 - 0:15) [slapped]
       .      .        . .     .    .       .      .        . .     .    .
   Q   Q   E. E. E   E E E E E E  E E   Q   Q   E. E. E   E E E E E E  E E
G|-----4------6----|---9-9-----11-----|-----4------6----|---9-9-----11-----|
D|-----------------|----------------6-|-----------------|----------------6-|
A|-2-------4-----7-|-7-----7/9--------|-2-------4-----7-|-7-----7/9--------|
E|-----------------|--------------4---|-----------------|--------------4---|


  (0:15 - 0:30)
   rest

  
  (0:30 - 0:38) [slapped]  
       .      .        . .     .    .       .      .        . .     .    .
   Q   Q   E. E. E   E E E E E E  E E   Q   Q   E. E. E   E E E E E E  E E
G|-----4------6----|---9-9-----11-----|-----4------6----|---9-9-----11-----|
D|-----------------|----------------6-|-----------------|----------------6-|
A|-2-------4-----7-|-7-----7/9--------|-2-------4-----7-|-7-----7/9--------|
E|-----------------|--------------4---|-----------------|--------------4---|



  (0:38 - 0:46) 
   rest


  (0:46 - 1:09)
   E E E E E E E E   E E E E E E E E   E E E E E E E E   E E E E E E Q
G|-----------------|-----------------|-----------------|-----------------|
D|-----------------|-----------------|-----------------|-----------------|
A|-2-2-2-2-2-2-2-2-|-2-2-2-2-2-2-2-2-|-----------------|-----------------|
E|-----------------|-----------------|-4/7-7-7-7-7-7-7-|-7-7-7-7-7-7-7\--|

   E E E E E E E E   E E E E E E E E   E E E E E E E E   E E E E E E E E
G|-----------------|-----------------|-----------------|-----------------|
D|-----------------|-----------------|-----------------|-----------------|
A|-----------------|-----------------|-----------------|-4-4-4-4-7-7-9-9-|
E|-5-5-5-5-5-5-5-5-|-0-0-0-0-4-4-4-4-|-5-5-5-5-5-5-5-5-|-----------------|

   E E E E E E E E   E E E E E E E E   E E E E E E E E   E E E E E E E E
G|-----------------|-----------------|-----------------|-----------------|
D|-----------------|-----------------|-----------------|-----------------|
A|-----------------|-----------------|-----------------|-----------------|
E|-5-5-5-5-5-5-5-5-|-0-0-0-0-4-4-4-4-|-2-2-2-2-2-0-2-4-|-2-2-2-2-2-2-2-2-|


  (1:09 - 1:13)
   rest


  (1:13 - 1:17) [slapped]
       .      .        . .     .    .
   Q   Q   E. E. E   E E E E E E  E E 
G|-----4------6----|---9-9-----11-----|
D|-----------------|----------------6-|
A|-2-------4-----7-|-7-----7/9--------|
E|-----------------|--------------4---|


  (1:17 - 1:32)
   rest


  (1:32 - 2:10)
   E E E E E E E E   E E E E E E E E   E E E E E E E E   E E E E E E Q
G|-----------------|-----------------|-----------------|-----------------|
D|-----------------|-----------------|-----------------|-----------------|
A|-2-2-2-2-2-2-2-2-|-2-2-2-2-2-2-2-2-|-----------------|-----------------|
E|-----------------|-----------------|-4/7-7-7-7-7-7-7-|-7-7-7-7-7-7-7\--|

   E E E E E E E E   E E E E E E E E   E E E E E E E E   E E E E E E E E
G|-----------------|-----------------|-----------------|-----------------|
D|-----------------|-----------------|-----------------|-----------------|
A|-----------------|-----------------|-----------------|-4-4-4-4-7-7-9-9-|
E|-5-5-5-5-5-5-5-5-|-0-0-0-0-4-4-4-4-|-5-5-5-5-5-5-5-5-|-----------------|

   E E E E E E E E   E E E E E E E E   E E E E E E E E   E E E E E E E E
G|-----------------|-----------------|-----------------|-----------------|
D|-----------------|-----------------|-----------------|-----------------|
A|-----------------|-----------------|-----------------|-----------------|
E|-5-5-5-5-5-5-5-5-|-0-0-0-0-4-4-4-4-|-2-2-2-2-2-0-2-4-|-2-2-2-2-2-2-2-2-|

   E E E E E E E E   E E E E E E E E   E E E E E E E E   E E E E E E E E
G|-----------------|-----------------|-----------------|-----------------|
D|-----------------|-----------------|-----------------|-----------------|
A|-----------------|-----------------|-----------------|-4-4-4-4-7-7-9-9-|
E|-5-5-5-5-5-5-5-5-|-0-0-0-0-4-4-4-4-|-5-5-5-5-5-5-5-5-|-----------------|

   E E E E E E E E   E E E E E E E E   E E E E E E  E E   E E E E E E E E 
G|-----------------|-----------------|------------------|-----------------|
D|-7-7-7-7-7-7-7-7-|---------6-6-6-6-|-----------11-----|-----------------|
A|-----------------|-7-7-7-7---------|-9-9-9-9-9--------|-----------------|
E|-----------------|-----------------|--------------9-0-|-2-2-2-2-2-2-2-2-|


  (2:10 - 2:25)
   rest


  (2:25 - 3:20)
   E E E E E E E E   E E E E E E E E   E E E E E E E E   E E E E E E Q
G|-----------------|-----------------|-----------------|-----------------|
D|-----------------|-----------------|-----------------|-----------------|
A|-----------------|-----------------|-----------------|-----------------|
E|-4/7-7-7-7-7-7-7-|-7-7-7-7-7-7-7-7-|-4/7-7-7-7-7-7-7-|-7-7-7-7-7-7-7\--|

   E E E E E E E E   E E E E E E E E   E E E E E E E E   E E E E E E E E
G|-----------------|-----------------|-----------------|-----------------|
D|-----------------|-----------------|-----------------|-----------------|
A|-----------------|-----------------|-----------------|-4-4-4-4-7-7-9-9-|
E|-5-5-5-5-5-5-5-5-|-0-0-0-0-4-4-4-4-|-5-5-5-5-5-5-5-5-|-----------------|

   E E E E E E E E   E E E E E E E E   Q   H.     S  S  E   S S E  S  S  E   S S E
G|-----------------|-----------------|----------|-----------------------------------|
D|-----------------|-----------------|----------|-11-11-11--9-9-9-------------------|
A|-----------------|-----------------|----------|------------------11-11-11--9-9-9--|
E|-5-5-5-5-5-5-5-5-|-0-0-0-0-4-4-4-4-|-2///14---|-----------------------------------|

   E E E E E E E E   E E E E E E E E   E E E E E E E E   E E E E E E E E
G|-----------------|-----------------|-----------------|-----------------|
D|-----------------|-----------------|-----------------|-----------------|
A|-----------------|-----------------|-----------------|-4-4-4-4-7-7-9-9-|
E|-5-5-5-5-5-5-5-5-|-0-0-0-0-4-4-4-4-|-5-5-5-5-5-5-5-5-|-----------------|

   E E E E E E E E   E E E E E E E E   E E E E E E E E   E E E E E E E E
G|-----------------|-----------------|-----------------|-----------------|
D|-----------------|-----------------|-----------------|-----------------|
A|-----------------|-----------------|-----------------|-----------------|
E|-5-5-5-5-5-5-5-5-|-0-0-0-0-4-4-4-4-|-2-2-2-2-2-0-2-4-|-2-2-2-2-2-2-2-2-|

   E E E E E E E E   E E E E E E E E   E E E E E E E E   E E E E E E E E
G|-----------------|-----------------|-----------------|-----------------|
D|-----------------|-----------------|-----------------|-----------------|
A|-----------------|-----------------|-----------------|-4-4-4-4-7-7-9-9-|
E|-5-5-5-5-5-5-5-5-|-0-0-0-0-4-4-4-4-|-5-5-5-5-5-5-5-5-|-----------------|

   E E E E E E E E   E E E E E E E E   E E E E E E  E E   E E E E E E E E 
G|-----------------|-----------------|------------------|-----------------|
D|-7-7-7-7-7-7-7-7-|---------6-6-6-6-|-----------11-----|-----------------|
A|-----------------|-7-7-7-7---------|-9-9-9-9-9--------|-----------------|
E|-----------------|-----------------|--------------9-0-|-2-2-2-2-2-2-2-2-|
Добавлено: 11.08.2013
Другие материалы по этой песне:
  • Аккорды и текст

Страница создана 11.08.2013
http://primanota.ru/misc-unsigned-bands/shields-mezzanine-chords.htm
Привет, Гость.
Предлагаем пройти революционный курс по гитаре.
Подарок от PrimaNota.Ru, забирай!