PrimaNota.ru - самый крупный в мире бесплатный архив песенных текстов, аккордов, табулатур и нот


Misc Unsigned Bands - Skeleton Kid - Rock Her Bones - бас-таба, видео

Регистрация Запомнить меня
Войти через:  Facebook Google Twitter Vk Yandex Mail.ru

Misc Unsigned Bands - Skeleton Kid - Rock Her Bones - бас-таба, видео

Печатать
Просмотров: 48
Song is half a step down in flat tuning

Intro x 2
G|---------------------------------------------------------------|
D|----------5-4--------------------------------------------------|
A|-2-----2------2------------------------------------------------|
E|---3-2----------3-2-3333-2222----------------------------------|


Main Riff
G|----------------------------------------------------------------|
D|---------------------------5-55-4-44----------------------------|
A|-2-22222-----------2-22222-----------2-22222--------------------|
E|---------3-33-2-22---------------------------3-33-2-22-3333-2222|


Verse
G|---------------------------------------------------------------|
D|---------------------------------------------------------------|
A|-2-2--5-5555--4-4-44444----------------------------------------|
E|---------------------------------------------------------------|


Chorus
G|---------------------------------------------------------------|
D|---------------------------------------------------------------|
A|----4-----5-----4----------------------------------------------|
E|-0-0---0-0---0-0-----33333333-22222222-------------------------|


Solo/Build Up
G|----------------------------------------------------------------|
D|---------------------------5-55-4-44----------------------------|
A|-2-22222-----------2-22222-----------2-22222--------------------|
E|---------3-33-2-22---------------------------3-33-2-22-3333-2222|

G|----------------------------------------------------------------|
D|---------------------------7-77-6-66----------------------------|
A|-4-44444-----------4-44444-----------4-44444--------------------|
E|---------5-55-4-44---------------------------5-55-4-44-5555-4444|

G|----------------------------------------------------------------|
D|---------------------------9-99-8-88----------------------------|
A|-6-66666-----------6-66666-----------6-66666--------------------|
E|---------7-77-6-66---------------------------7-77-6-66-7777-6666|

G|----------------------------------------------------------------|
D|---------------------------11-1111-10-1010----------------------|
A|-8-88888-----------8-88888-----------------8-88888--------------|
E|---------9-99-8-88---------------------------------9-99-8-88----|


G|----------------------------------------------------------| 
D|----------------------------------------------------------| 
A|----------------------------------------------------------| 
E|-9999-8888------------------------------------------------|
Добавлено: 14.11.2013
Другие материалы по этой песне:
  • Аккорды и текст

Страница создана 14.11.2013
http://primanota.ru/misc-unsigned-bands/skeleton-kid-rock-her-bones-chords.htm
Привет, Гость.
Предлагаем пройти революционный курс по гитаре.
Подарок от PrimaNota.Ru, забирай!