PrimaNota.ru - самый крупный в мире бесплатный архив песенных текстов, аккордов, табулатур и нот


Misc Unsigned Bands - Sarah Gregory - It Could Rain - таба

Регистрация Запомнить меня
Войти через:  Facebook Google Twitter Vk Yandex Mail.ru

Misc Unsigned Bands - Sarah Gregory - It Could Rain - таба

Печатать
Просмотров: 39
Hey, this is my first attempt at writing out a tab on here, so I hope all goes well.
This song is an original by Sarah Gregory. She is the girl who sings with the Gregory Bros.
on Youtube, and does Auto-Tune the News and stuff. She is really an accomplished 
musician/singer in her own right and I love this song of her's! I've hopefully figured it out
and put it down correctly. If you want to watch her on youtube, here is a link: 
http://youtu.be/5qU_b52vgIM

The lyrics:
            G                       Am
When I fall, fall with me baby
     D                      C     G
So I won't feel the pain
                G                 Am
Cuz' with you, I am so happy
       D                   C     G
With you, I'm finally ok

                   G                Am
And it could rain, all my lifetime
                   D                                     C    G
and I would still see sunlight on your face
  G                                    Am
You have made my life so wonderful
            D                                     C     G
In your arms, my heart found its place


Em                              Am
I don't need no pretty promises
           D                     C     G
I don't need no pretty things
             G                               Am
So don't worry yourself about what to say
             D                                  C      G
Just put your hand in mine each day


Chords Used:
e|--0--|--0----|--2--|---0---|--0---|
B|--0--|--1----|--3--|---1---|--0---|
G|--0--|--2----|--2--|---0---|--0---|
D|--0--|--2----|--0--|---2---|--2---|
A|--2--|--0----|--0--|---3---|--2---|
E|--3--|--0----|--0--|---0---|--0---|

      G         Am         D          C          Em




e|----------------------------------------2--------2------------------------------------|
B|------0-------0-------1-------1-------3--3-----3--3-----1-------0---------------------|
G|-------0-------0-----2-2----2--2----2-----2--2-----2--0--0-------0--------------------|
D|----0---0---0---0---2---2--2----2--0--------0--------2----2---0---0-------------------|
A|---2-------2-------0------0--------------------------3--------2-----------------------|
E|--3-------3--------------------------------------------------3------------------------|

Once you get through this part once, just repeat it. It's the same for all the verses
and choruses, except for one verse. Which is the next one

After playing the above, you switch from the G to the Em
e|-----------------------------------2------2--------------------------------------|
B|----0-------0-------1------1-----3--3---3-3-----1------0-------------------------|
G|---0-0-----0-0-----2-2---2-2---2----2-2---2---0-0------0-------------------------|
D|--2---2---2---2---2---2-2---2-0------0-------2---2---0--0------------------------|
A|-2-----2-2-----2-0-----0--------------------3-------2----2-----------------------|
E|----------------------------------------------------3------3---------------------|
Добавлено: 20.11.2013
Другие материалы по этой песне:
  • Аккорды и текст

Страница создана 20.11.2013
http://primanota.ru/misc-unsigned-bands/sarah-gregory-it-could-rain-chords.htm
Привет, Гость.
Предлагаем пройти революционный курс по гитаре.
Подарок от PrimaNota.Ru, забирай!