PrimaNota.ru - самый крупный в мире бесплатный архив песенных текстов, аккордов, табулатур и нот


Misc Unsigned Bands - Seventh Degree - The Shining - таба

Регистрация Запомнить меня
Войти через:  Facebook Google Twitter Vk Yandex Mail.ru

Misc Unsigned Bands - Seventh Degree - The Shining - таба

Печатать
Просмотров: 60
*This is the song "The Shining" off their EP "When the End Collides With Fate" it 
is a great, easy song by a great band. I'm 90% sure it's 100% correct but If you 
have any questions please don't email me I probably don't know the answer



INTRO:
e --------------------------------------------------------------|
B --------------------------------------------------------------|
G --------------------------------------------------------------|
D --------------------------------------------------------------|x4
A -22-55-444---22-55-44-77--------------------------------------|
E -00-33-222---00-33-22-55--------------------------------------|

MAIN RIFF:
e ----------------------------------------------------------------|
B ----------------------------------------------------------------|
G ----------------------------------------------------------------|
D ----------------------------------------------------------------|x8
A 2---------------------------------------------------------------|
E 0-xxxxxxxxxx-5-3-2-3--------------------------------------------|

BRIDGE 1:
e --------------------------------------------------------------|
B --------------------------------------------------------------|
G --------------------------------------------------------------|
D -22-22-22-2---------------------------------------------------|x3
A -00-00-00-0---5-3-2-3-----------------------------------------|
E --------------------------------------------------------------|

"SLOW RIDE RIFF" (GALLOPS)
e --------------------------------------------------------------|
B --------------------------------------------------------------|
G --------------------------------------------------------------|
D -4-444-444-444-444--------------------------------------------|
A -2-222-222-222-222--------------------------------------------|
E --------------------------------------------------------------|

CHORUS:
e --------------------------------------------------------------|
B --------------------------------------------------------------|
G --------------------------------------------------------------|
D -----------44444444-------------------------------------------|
A -22222222--22222222--55555555--77777777-----------------------|
E -00000000------------33333333--55555555-----------------------|


e----------------------------------------------------------------|
B----------------------------------------------------------------|
G----------------------------------------------------------------|
D -----------44444444--------------------------------------------|
A -22222222--22222222--55555555--7-5-4-5-------------------------|
E -00000000------------33333333--5-3-2-3-------------------------|
PLAY MAIN RIFF x6
BRIDGE 1x3
CHORUS

BRIDGE 2
e --------------------------------------------------------------|
B --------------------------------------------------------------|
G --------------------------------------------------------------|
D --------------------------------------------------------------|x2
A ----------------------55-4-3-1--------------------------------|SECOND TIME AS
E -555-35-555-35-555-35----------3------------------------------|POWER CHORDS
MAIN RIFFx8 (backing for solo)
BRIDGE 1x3
"SLOW RIDE RIFF"
CHORUS
INTROx3
Добавлено: 09.09.2013
Другие материалы по этой песне:
  • Аккорды и текст

Страница создана 09.09.2013
http://primanota.ru/misc-unsigned-bands/seventh-degree-the-shining-chords.htm
Привет, Гость.
Предлагаем пройти революционный курс по гитаре.
Подарок от PrimaNota.Ru, забирай!