PrimaNota.ru - самый крупный в мире бесплатный архив песенных текстов, аккордов, табулатур и нот


Misc Unsigned Bands - Sawano Hiroyuki - Doa - таба

Регистрация Запомнить меня
Войти через:  Facebook Google Twitter Vk Yandex Mail.ru

Misc Unsigned Bands - Sawano Hiroyuki - Doa - таба

Печатать
Просмотров: 196
Tabbed by: 20minutesto9
Video: http://www.you.tube.com/watch?v=tLBT_6zB7jo

Composed by Sawano Hiroyuki
Sung by Aimee Blackshleger
From Attack on Titan Original Soundtrack 1

Tuning: CGCFAD

This is the MAIN RIFF. When i say play the main riff, that means play the two lines below this.
D|---------------------------------------------------------------------------|
A|---------------------------------------------------------------------------|
F|---------------------------------------------------------------------------|
C|-2---5-2---x-x-5---x-x-5---5-7---2---0-------------------------------------|
G|-2---5-2---x-x-5---x-x-5---5-7---2---0-------------------------------------|
C|-2---5-2---x-x-5---x-x-5---5-7---2---0-------------------------------------|

D|---------------------------------------------------------------------------|
A|---------------------------------------------------------------------------|
F|---------------------------------------------------------------------------|
C|-2---5-2---x-x-5---x-x-5---5-7---0--x-x-0----------------------------------|
G|-2---5-2---x-x-5---x-x-5---5-7---0--x-x-0----------------------------------|
C|-2---5-2---x-x-5---x-x-5---5-7---0--x-x-0----------------------------------|

(Pretend the letters on the left side are the same from now on)

0:00

Play the main riff twice

0:12

Guitar2

e|15--15--15--15--15--15--15-x-x-15--22--22--22--22--22--22--22-x-x-22-------|
B|---------------------------------------------------------------------------|
G|---------------------------------------------------------------------------|
D|---------------------------------------------------------------------------|
A|---------------------------------------------------------------------------|
E|---------------------------------------------------------------------------|

Guitar 1 plays the main riff

0:27

Both Guitars
e|----------------------------------------------------------------------10---|
B|---------------------------------------------------------------------------|
G|---------------------------------------------------------------------------|
D|-------2-------2-------2---5p4-2----2--------2-------2--------2/-9-------9-|
A|-2--5----2--5----2--5-------------5----2--5----2--5-----2--5---------------|
E|---------------------------------------------------------------------------|

Guitar 2 (repeat it once)
e|-----------19--------------19---------------19------------------19----------|
B|----20-------------20--------------20-----------------20--------------------|
G|----------------------------------------------------------------------------|
D|17-----17-----17------17------17------17--------17-------17-----------------|
A|----------------------------------------------------------------------------|
E|----------------------------------------------------------------------------|

Guitar 1 plays the main riff

0:41

Guitar 1 (Guitar 2 optional)
e|-------------------------------------------------------------------------------|
B|-------------------------------------------------------------------------------|
G|-------------------------------------------------------------------------------|
D|-2-2-0h2-2-2-0h2-2-2-0h2-2-2-0h2-2-2-0h2-2-2-0h2-2-2-0h2-2-2-0h2---------------|
A|-2-2-0h2-2-2-0h2-2-2-0h2-2-2-0h2-2-2-0h2-2-2-0h2-2-2-0h2-2-2-0h2---------------|
E|-2-2-0h2-2-2-0h2-2-2-0h2-2-2-0h2-2-2-0h2-2-2-0h2-2-2-0h2-2-2-0h2---------------|

0:48

Guitar 2 (repeat it once)
e|-----------19--------------19---------------19------------------19----------|
B|----20-------------20--------------20-----------------20--------------------|
G|----------------------------------------------------------------------------|
D|17-----17-----17------17------17------17--------17-------17-----------------|
A|----------------------------------------------------------------------------|
E|----------------------------------------------------------------------------|

Guitar 1 plays the main riff

0:56

Guitar 3 (Reverb Echo) (Repeat once)
e|------------------------------------------------------------------------------|
B|--------------------8------------------8-----------------8--------------------|
G|---9---9---9---7-9---9---9---9-----7-9---9---9---9---7-9---9---9----9---7-----|
D|------------------------------------------------------------------------------|
A|-7---7---7---7---------7---7---7----------7---7---7---------7----7---7--------|
E|------------------------------------------------------------------------------|

Guitar 1 and 2 (on repeat)
e|--------------------------------------------------------------------------------|
B|--------------------------------------------------------------------------------|
G|--------------------------------------------------------------------------------|
D|-xx-2--2------xx-2--2------xx-2--2---xx-2'-2'-2'---2--2--0'-0'-0'---------------|
A|-xx-2--2------xx-2--2------xx-2--2---xx-2'-2'-2'---2--2--0'-0'-0'---------------|
E|-xx-2--2------xx-2--2------xx-2--2---xx-2'-2'-2'---2--2--0'-0'-0'---------------|

1:10

Guitar2

e|15--15--15--15--15--15--15-x-x-15--22--22--22--22--22--22--22-x-x-22-------|
B|---------------------------------------------------------------------------|
G|---------------------------------------------------------------------------|
D|---------------------------------------------------------------------------|
A|---------------------------------------------------------------------------|
E|---------------------------------------------------------------------------|

Guitar 1 plays the main riff

1:23 (Chorus)
e|-----------------------------------------------------------------------------|
B|-----------------------------------------------------------------------------|
G|------------------x-5--x-5--x-5-------------2---x--2-------------------------|
D|--2--x-2--x-2-----x-5--x-5--x-5--5--x-5--5--2---x--2-------------------------|
A|--2--x-2--x-2-----x-3--x-3--x-3--5--x-5--5--0---x--0-------------------------|
E|--2--x-2--x-2--------------------3--x-3--3-----------------------------------|

e|-----------------------------------------------------------------------------|
B|-----------------------------------------------------------------------------|
G|------------------------------2--2--x-2--5--5--------------------------------|
D|--2--x-2--x-2---0--x-0--x-0---2--2--x-2--5--5--5--5--------------------------|
A|--2--x-2--x-2---0--x-0--x-0---0--0--x-0--3--3--5--5--------------------------|
E|--2--x-2--x-2---0--x-0--x-0--------------------3--3--------------------------|

Do it...

1:44

Guitar 2 (repeat once)
e|-----------------------------------------------------------------------------|
B|-----------------------------------------------------------------------------|
G|12-9-12--9-12-9--12-9-12--9-12-9--12-9-12--9-12-9--12-9-12--9-14-12----------|
D|-----------------------------------------------------------------------------|
A|-----------------------------------------------------------------------------|
E|-----------------------------------------------------------------------------|

Guitar 1 (repeat once)
e|-----------------------------------------------------------------------------|
B|-----------------------------------------------------------------------------|
G|-----------------------------------------------------------------------------|
D|-----------------------------------------------------------------------------|
A|10-7-10--7-10-7--10-7-10--7-10-7--10-7-10--7-10-7--10-7-10--7-12-10----------|
E|-----------------------------------------------------------------------------|

1:58
Both Guitars (repeat once)
e|-----------------------------------------------------------------------------|
B|-----------------------------------------------------------------------------|
G|-----------------------------------------------------------------------------|
D|-5-2-5--2-5-2--5-2-5--2-5-2--5-2-5--2-5-2--5-2-5--2-7-5----------------------|
A|-5-2-5--2-5-2--5-2-5--2-5-2--5-2-5--2-5-2--5-2-5--2-7-5----------------------|
E|-5-2-5--2-5-2--5-2-5--2-5-2--5-2-5--2-5-2--5-2-5--2-7-5----------------------|

e|---------------------------------------------------------------------------|
B|---------------------------------------------------------------------------|
G|---------------------------------------------------------------------------|
D|---2--------2---------2---------2------------------------------------------|
A|-----2-5------2-5-------2-5-------2-5~~------------------------------------|
E|-2--------2---------2---------2--------------------------------------------|

2:16

Guitar2

e|15--15--15--15--15--15--15-x-x-15--22--22--22--22--22--22--22-x-x-22-------|
B|---------------------------------------------------------------------------|
G|---------------------------------------------------------------------------|
D|---------------------------------------------------------------------------|
A|---------------------------------------------------------------------------|
E|---------------------------------------------------------------------------|

Guitar 1 plays the main riff

2:29 (Chorus)

Guitar 2
e|-----------------------------------------------------------------------------|
B|-----------------------------------------------------------------------------|
G|------------------x-5--x-5--x-5-------------2---x--2-------------------------|
D|--2--x-2--x-2-----x-5--x-5--x-5--5--x-5--5--2---x--2-------------------------|
A|--2--x-2--x-2-----x-3--x-3--x-3--5--x-5--5--0---x--0-------------------------|
E|--2--x-2--x-2--------------------3--x-3--3-----------------------------------|

Guitar 1
e|15---15---15------17-----19------17----17------15--15----15----------------|
B|---17---17---17------17-----17------17-----17---------17----17-------------|
G|---------------------------------------------------------------------------|
D|---------------------------------------------------------------------------|
A|---------------------------------------------------------------------------|
E|---------------------------------------------------------------------------|

Guitar 2
e|-----------------------------------------------------------------------------|
B|-----------------------------------------------------------------------------|
G|------------------------------2--2--x-2--5--5--------------------------------|
D|--2--x-2--x-2---0--x-0--x-0---2--2--x-2--5--5--5--5--------------------------|
A|--2--x-2--x-2---0--x-0--x-0---0--0--x-0--3--3--5--5--------------------------|
E|--2--x-2--x-2---0--x-0--x-0--------------------3--3--------------------------|

Guitar 1
e|15---15---15------17-----19------17----17------15--15----15----------------|
B|---17---17---17------17-----17------17-----17---------17----17-------------|
G|---------------------------------------------------------------------------|
D|---------------------------------------------------------------------------|
A|---------------------------------------------------------------------------|
E|---------------------------------------------------------------------------|

2:43
Guitar 3 (Reverb Echo)
e|-----------------------------------------------------------------------------|
B|-----------------------------------------------------------------------------|
G|-----------------------------------------------------------------------------|
D|-0-2---2--5-2---5--0-2---2--5-2---5--0-2---2--5-2---5--0-2---2--7-5---2------|
A|-----------------------------------------------------------------------------|
E|-----------------------------------------------------------------------------|

2:50
Guitar 1 and 2
e|--------------------------------------------------------------------------------|
B|--------------------------------------------------------------------------------|
G|--------------------------------------------------------------------------------|
D|-xx-2--2------xx-2--2------xx-2--2---xx-2'-2'-2'---2--2--0'-0'-0'---------------|
A|-xx-2--2------xx-2--2------xx-2--2---xx-2'-2'-2'---2--2--0'-0'-0'---------------|
E|-xx-2--2------xx-2--2------xx-2--2---xx-2'-2'-2'---2--2--0'-0'-0'---------------|

Guitar2

e|15--15--15--15--15--15--15-x-x-15--22--22--22--22--22--22--22-x-x-22-------|
B|---------------------------------------------------------------------------|
G|---------------------------------------------------------------------------|
D|---------------------------------------------------------------------------|
A|---------------------------------------------------------------------------|
E|---------------------------------------------------------------------------|

Guitar 1 plays the main riff

3:12

Guitar 1 plays main riff til the end. On the last play, omit the 6th string and play 
just the 5th and 4th strings.


************************************

| /   slide up
| \   slide down
| h   hammer-on
| p   pull-off
| ~   vibrato
| +   harmonic
| x   Mute note
| b   Bend
| pb  Pre-bend
| br  Bend release
| pbr Pre-bend release
| brb Bend release bend
|' palm mute

************************************
Добавлено: 07.10.2013
Другие материалы по этой песне:
  • Аккорды и текст

Страница создана 07.10.2013
http://primanota.ru/misc-unsigned-bands/sawano-hiroyuki-doa-chords.htm
Привет, Гость.
Предлагаем пройти революционный курс по гитаре.
Подарок от PrimaNota.Ru, забирай!