PrimaNota.ru - самый крупный в мире бесплатный архив песенных текстов, аккордов, табулатур и нот


Misc Unsigned Bands - Setu Firestorm - The Fade - таба

Регистрация Запомнить меня
Войти через:  Facebook Google Twitter Vk Yandex Mail.ru

Misc Unsigned Bands - Setu Firestorm - The Fade - таба

Печатать
Просмотров: 211
Уроки эстрадного вокала в Санкт-Петербурге
---------------------------------------------------------
Setu Firestorm - The Fade 
---------------------------------------------------------

Credits to:

Setu Firestorm: for creating the song 

and

Tim Grif - He made the cover i Re-Tabbed -

Here it is: https://www.youtube.com/watch?v=7hxrADKhRb0


Tabs made by: takasutakagiu

Before we start i'm aware this is not 100% accurate

I tryed my best to create tabs for this awesomeness!

Hope you like it!



Intro: 

e |-0-|-X-|---------------------------|-X-|
B |-0-|-X-|---------------------------|-X-|
G |-0-|-X-|-2-2-2-2-2-3-3-3-5-5-5-9~--|-X-|
D |-0-|-X-|---------------------------|-X-|
A |-0-|-X-|---------------------------|-X-|
E |-0-|-X-|---------------------------|-X-|

e |-----------------------------------------------------|
B |-9-9-9-9-9-12-12-9-9-9-/15-14-14-14-12-12-9-9-9------|
G |-----------------------------------------------------|
D |-----------------------------------------------------|
A |-----------------------------------------------------|
E |-----------------------------------------------------|

@ 0:26

e |-----------------------------------------------------|
B |-----------------------------------------------------|
G |-12-11-11-11-13-11-11-11-14-12-12-12-16-14-14-14-17--|
D |-----------------------------------------------------|
A |-----------------------------------------------------|
E |-----------------------------------------------------|

e |-------------------|---------------------------------|
B |-------------------|---------------------------------|
G |-12-11----7-9-7-12-|---------------------------------|
D |-------12----------|----5-7-12-10-9-5----------------|
A |-------------------|---------------------------------|
E |-------------------|---------------------------------|

e |-----------------------------------------------------|
B |-----------------------------------------------------|
G |-12-11-------12-11-----------------------------------|
D |-------12-12-------12-12--7-9-7-12--7-9-7-12---------|
A |-----------------------------------------------------|
E |-----------------------------------------------------|

e |-----------------------------------------------------|
B |-----------------------------------------------------|
G |-12-12-11-------12-11--------------------------------|
D |----------12-12-------12-12--7-9-7-12--7-9-7-12------|
A |-----------------------------------------------------|
E |-----------------------------------------------------|

e |-----------------------------------------------------|
B |-12(x8)-14-12-11(x8)-12(x7)-12b----------------------|
G |-----------------------------------------------------|
D |-----------------------------------------------------|
A |-----------------------------------------------------|
E |-----------------------------------------------------|

@ 1:03

e |-----------------------------------------------------|
B |----------------------12-13-12-------------15--------|
G |-11-12-12-12-14-12-12----------12-11-11-12-----------| X2
D |-----------------------------------------------------|
A |-----------------------------------------------------|
E |-----------------------------------------------------|

e |-----------------------------------------------------|
B |-----------------------------------------------------|
G |-12-11-11-11-13-11-11-11-14-12-12-12-16-14-14-14-17--| X2
D |-----------------------------------------------------|
A |-----------------------------------------------------|
E |-----------------------------------------------------|

e |-------------------|---------------------------------|
B |-------------------|---------------------------------|
G |-12-11-------------|---------------------------------|
D |-------12-7-9-7-12-|------12-10-9--------------------|
A |-------------------|-10-12--------10-----------------|
E |-------------------|---------------------------------|

e |-----------------------------------------------------|
B |-----------------------------------------------------|
G |-12-11-------12-11-----------------------------------|
D |-------12-12-------12-12--7-9-7-12--7-9-7-12---------|
A |-----------------------------------------------------|
E |-----------------------------------------------------|

e |-----------------------------------------------------|
B |-----------------------------------------------------|
G |-12-12-11-------12-11--------------------------------|
D |----------12-12-------12-12--7-9-7-12--7-9-7-12------|
A |-----------------------------------------------------|
E |-----------------------------------------------------|

You have to figure out this one, kind of pull-offs maybe

e |-----------------------------------------------------|
B |-----------------------------------------------------|
G |-13p12-12-12-13p12-12-12-14p11-11-11-14p11-11-11-----|
D |-----------------------------------------------------|
A |-----------------------------------------------------|
E |-----------------------------------------------------|

e |-----------------------------------------------------|
B |-----------------------------------------------------|
G |-13p12-12-12-13p12-12-12-12-12-12b-------------------|
D |-----------------------------------------------------|
A |-----------------------------------------------------|
E |-----------------------------------------------------|

@ 1:48

e |-----------------------------------------------------|
B |----------------------12-13-12-------------15--------|
G |-11-12-12-12-14-12-12----------12-11-11-12-----------| X2
D |-----------------------------------------------------|
A |-----------------------------------------------------|
E |-----------------------------------------------------|

e |-----------------------------------------------------|
B |-----------------------------------------------------|
G |-12-11-11-11-13-11-11-11-14-12-12-12-16-14-14-14-17--| X2
D |-----------------------------------------------------|
A |-----------------------------------------------------|
E |-----------------------------------------------------|

In this part:

Every X means you stop the string sound

e |-----------------------------------------------------|
B |-----------------------------------------------------|
G |-11-11-X(x5)-11-11-14-11-12(x5)-14-12-11(x5)---------|
D |-----------------------------------------------------|
A |-----------------------------------------------------|
E |-----------------------------------------------------|

e |-----------------------------------------------------|
B |-----------------------------------------------------|
G |-12-12-X(x4)-12-12-14-12--11-11-X(x3)-11-11-14-11----|
D |-----------------------------------------------------|
A |-----------------------------------------------------|
E |-----------------------------------------------------|

e |-----------------------------------------------------|
B |-----------------------------------------------------|
G |-12(x8)-11(x8)-12(x5)-11-9-7~--/12(x8)-11(x8)-12-11--|
D |-----------------------------------------------------|
A |-----------------------------------------------------|
E |-----------------------------------------------------|

Solo:

e |-----------------------------------------------------|
B |-----------------------------------------------------|
G |-16-14-14----16-14-14-----19-17-17----19-17-17-------|
D |----------14----------14-----------17----------17----|
A |-----------------------------------------------------|
E |-----------------------------------------------------|

e |-----------------------------------------------------|
B |-------------------------22-20-22-20-22-20-22-20-----|
G |-22-20-22-20-22-20-22-20-----------------------------|
D |-----------------------------------------------------|
A |-----------------------------------------------------|
E |-----------------------------------------------------|

e |-----------------------------------------------------|
B |-22-20-20-20----22-20-20-20--------------------------|
G |-------------19-------------19-----------------------|
D |-----------------------------------------------------|
A |-----------------------------------------------------|
E |-----------------------------------------------------|

e |-----------------------------------------------------|
B |-------------------------22-20-22-20-22-20-22-20-----|
G |-22-20-22-20-22-20-22-20-----------------------------|
D |-----------------------------------------------------|
A |-----------------------------------------------------|
E |-----------------------------------------------------|

e |-------|---------------------------------------------|
B |-22-20-|-20-22-22-22-22-20--20-----------------------|
G |-------|------------------19-------------------------|
D |-------|---------------------------------------------|
A |-------|---------------------------------------------|
E |-------|---------------------------------------------|

Bridge (?) PALM MUTED!

e |-----------------------------------------------------|
B |-----------------------------------------------------|
G |-----------------------------------------------------|
D |-----------------------------------------------------|
A |-----------------------------------------------------|
E |--9-8-7(x4)--10-10-10-10-10-7-7-7-7-7---9-8-7(x5)----|

Last bit of Bridge UNMUTED!

e |-----------------------------------------------------|
B |-----------------------------------------------------|
G |-----------9-9-9-9-9---------------------------------|
D |-9-9-9-9-9-------------------------------------------|
A |-----------------------------------------------------|
E |-----------------------------------------------------|

Ending:

Play this whole part three times and you're done!

e |-----------------------------------------------------|
B |----------------------12-13-12-------------15--------|
G |-11-12-12-12-14-12-12----------12-11-11-12-----------| X2
D |-----------------------------------------------------|
A |-----------------------------------------------------|
E |-----------------------------------------------------|

e |-----------------------------------------------------|
B |-----------------------------------------------------|
G |-12-11-11-11-13-11-11-11-14-12-12-12-16-14-14-14-17--| X2
D |-----------------------------------------------------|
A |-----------------------------------------------------|
E |-----------------------------------------------------|
Добавлено: 30.08.2013
Другие материалы по этой песне:
  • Аккорды и текст

Страница создана 30.08.2013
http://primanota.ru/misc-unsigned-bands/setu-firestorm-the-fade-chords.htm
Привет, Гость.
Предлагаем пройти революционный курс по гитаре.
Подарок от PrimaNota.Ru, забирай!