PrimaNota.ru - самый крупный в мире бесплатный архив песенных текстов, аккордов, табулатур и нот


Misc Unsigned Bands - Pingpongbank - My Girl - таба

Регистрация Запомнить меня
Войти через:  Facebook Google Twitter Vk Yandex Mail.ru

Misc Unsigned Bands - Pingpongbank - My Girl - таба

Печатать
Просмотров: 45
-------------------------------------------------------------------------------
                             MY GIRL - PingpongBank
-------------------------------------------------------------------------------
Tabbed by: thunderwonder
Email: dasmonsterausdertiefe@networld.at

Tuning: E (Standard)

intro (clean)(play twice)

e|-7-7-3-3-7-7-2-2-----------------------------------------------------------|
B|5-5-3-3-5-5-2-2------------------------------------------------------------|
G|---------------------------------------------------------------------------|
D|---------------------------------------------------------------------------|
A|---------------------------------------------------------------------------|
E|---------------------------------------------------------------------------|

Verse (clean)
chords:
  D   G   E
e|5---3---0------------------------------------------------------------------|
B|7---3---0------------------------------------------------------------------|
G|7---4---1------------------------------------------------------------------|
D|7---5---2------------------------------------------------------------------|
A|5---5---2------------------------------------------------------------------|
E|5---3---0------------------------------------------------------------------|

           D
It was the greatest moment in my life
         G
When you affirmed my question on cell-phone
  D
I asked you, if you want to go with me
    E
The most important game ever was won

repeat intro

(use same chords as above)
I
Добавлено: 01.01.2014
Другие материалы по этой песне:
  • Аккорды и текст

Страница создана 01.01.2014
http://primanota.ru/misc-unsigned-bands/pingpongbank-my-girl-chords.htm
Привет, Гость.
Предлагаем пройти революционный курс по гитаре.
Подарок от PrimaNota.Ru, забирай!