PrimaNota.ru - самый крупный в мире бесплатный архив песенных текстов, аккордов, табулатур и нот


Misc Unsigned Bands - Pirates Meets Rock - Hayatebune - таба

Регистрация Запомнить меня
Войти через:  Facebook Google Twitter Vk Yandex Mail.ru

Misc Unsigned Bands - Pirates Meets Rock - Hayatebune - таба

Печатать
Просмотров: 34
                                 New Pirates                                    


Track 1
     S  S S S S S S S S S S S    S  S S S S S S S S S S S  
E||---------------------------|---------------------------|
B||---------------------------|---------------------------|
G||---------------------------|---------------------------|
D||--5s-7-7-7-7-7-7-7-7-7-7-7-|--5s-7-7-7-7-7-7-7-7-7-7-7-|
A||--3s-5-5-5-5-5-5-5-5-5-5-5-|--3s-5-5-5-5-5-5-5-5-5-5-5-|
E||---------------------------|---------------------------|
 
 
   S   S  S   S  S   S  S   S  S   S  S   S     S  S  S  S  Q.     S S  
------10-----10-----10-----10-----10-----10-|--------------------------|
--13b----13b----13b----13b----13b----13b----|--13-10-------------------|
--------------------------------------------|--------12-10-------------|
--------------------------------------------|--------------12----------|
--------------------------------------------|------------------------3-|
--------------------------------------------|----------------------5---|
 
 
  E  E  S S E  E  S S    E  E  S S S E.  S S    E  E  S S E  E  S S  
----------------------|----------------------|----------------------|
----------------------|----------------------|----------------------|
----------------------|----------------------|----------------------|
----------2-3--3--3-5-|--2--2----------------|----------2-3--3--3-5-|
--5--5--5-------------|--------5-3-3-5-----3-|--5--5--5-------------|
----------------------|------------------5---|----------------------|
 
 
  E  E  S S S  E.  S S    E  E  S S E  E  S S    E  E  S S S E.  S S  
-----------------------|----------------------|----------------------|
-----------------------|----------------------|----------------------|
-----------------------|--------------------2-|--3--3--2---2---------|
--2--2-----------------|----------3-5--5--5---|----------5---------2-|
--------5-3-3h-5-----3-|--5--5--5-------------|--------------5---5---|
-------------------5---|----------------------|----------------------|
 
 
  E  E  S S E  S S E     E  E  Q.     S S    E  E  S S E  E  S S  
----------------------|-------------------|----------------------|
----------------------|-------------------|----------5-6--6--6-8-|
----------2-----------|-----------------5-|--7--7--7-------------|
--3--3--5------2-3-2--|--2--0--2------7---|----------------------|
------------5---------|-------------------|----------------------|
----------------------|-------------------|----------------------|
 
 
  E  E  S S S  E.  S S    E  E  S S E  E  S S    E  E  S S S  E.  S S  
-----------------------|----------------------|-----------------------|
--5--5-----------------|----------5-6--6--6-8-|--5--5-----------------|
--------7-5-5h-7-----5-|--7--7--7-------------|--------7-5-5h-7-----5-|
-------------------7---|----------------------|-------------------7---|
-----------------------|----------------------|-----------------------|
-----------------------|----------------------|-----------------------|
 
 
  E  E  S S E  E  S S    E  E  S S S E.  S S    E  E  S S E  S S E   
--------------------5-|--6--6--5---5---------|----------5-----------|
----------6-8--8--8---|----------8---------5-|--6--6--8------5-6-5--|
--7--7--7-------------|--------------7---7---|------------7---------|
----------------------|----------------------|----------------------|
----------------------|----------------------|----------------------|
----------------------|----------------------|----------------------|
 
 
  E  S S S S S S S S S S    Q    S S Q.        Q    S S Q.      
-------------------------|--5---------------|--6---------------|
--5----------5-5-6-6-8-8-|-------6----------|-------6----------|
-----7-6-7-7-------------|---------7--------|---------7--------|
-------------------------|-----------7------|-----------8------|
-------------------------|------------------|------------------|
-------------------------|------------------|------------------|
 
 
  Q    Q    Q        E   E   E   S   Q     S    E  E  E  S   Q     S  
-----------------|---------------------------|-----------------------|
------------6----|--10--10--10--11p-10-----L-|--8--8--8--8h-10-----L-|
-------6---------|---------------------------|-----------------------|
--7--------------|---------------------------|-----------------------|
-----------------|---------------------------|-----------------------|
-----------------|---------------------------|-----------------------|
 
 
   E   E   E   S  Q     S    E  E  E  E.  S S S    Q.      Q.       
--------------------------|---------------------|--5-------6-------|
--10--10--10--11-10-----L-|--8--6--5----------6-|--8b------9b------|
--------------------------|-----------7---5-7---|------------------|
--------------------------|---------------------|------------------|
--------------------------|---------------------|------------------|
--------------------------|---------------------|------------------|
 
 
  E   E   E   E    Q       Q.     Q.        E  E  E  E.  S S S  
--5---5---5---5---------|----------------|---------------------|
--8b--8b--8b--8br--8----|--8------6------|--5--6--5----------6-|
------------------------|----------------|-----------7---5-7---|
------------------------|----------------|---------------------|
------------------------|----------------|---------------------|
------------------------|----------------|---------------------|
 
 
  Q.      Q.         E   E   E   E    Q       Q.     Q.        E  E  E  Q.      
--5-------6-------|--5---5---5---5---------|----------------|------------------|
--8b------9b------|--8b--8b--8b--8br--8----|--8------6------|--5--6--5---------|
------------------|------------------------|----------------|-----------7------|
------------------|------------------------|----------------|------------------|
------------------|------------------------|----------------|------------------|
------------------|------------------------|----------------|------------------|
 
 
   Q      S   S   S  Q      S      Q     S   S   S   S   Q     
---------10h-13p-10-13b-----Lb-|--13----10h-13p-10h-13p-10----|
--13b--------------------------|------------------------------|
-------------------------------|------------------------------|
-------------------------------|------------------------------|
-------------------------------|------------------------------|
-------------------------------|------------------------------|
 
 
   T   T   T   T  T  T  T   T   T   T  T  T  T   T   T   T  T  T  T   T   T   T 
--12h-13p-12p-10----10-12h-13p-12p-10----10-12h-13p-12p-10----10-12h-13p-12p-10-|
-----------------13-------------------13-------------------13-------------------|
--------------------------------------------------------------------------------|
--------------------------------------------------------------------------------|
--------------------------------------------------------------------------------|
--------------------------------------------------------------------------------|
 
 
   S  S  S  S  S  S  S  Q     S     S  S  S  E.   S  S  S  E.   
-----10-------------------------|------------------------------|
--13----13-10-------10----------|------------------------------|
--------------10-12-------------|-----------10------------12---|
-----------------------12-----L-|--12-10-12------12-10-12------|
--------------------------------|------------------------------|
--------------------------------|------------------------------|
 
 
   S  S  S  S  S  S  E.    E.      S  S  S  S  S  S  S  S  S  S  S  S  
-------------------------------|--------------------------------------|
-------------------------------|-----------------------------10----10-|
-----------10----10-12b---10---|-----------10----10-12-10-12----12----|
--12-10-12----12---------------|--12-10-12----12----------------------|
-------------------------------|--------------------------------------|
-------------------------------|--------------------------------------|
 
 
   S  S  S  S  S  S  Q.         S S    E  E  S S E  E  S S  
-----------10----10-10-------|------|----------------------|
--13-10-13----13----13b------|------|----------5-6--6--6-8-|
-----------------------------|----5-|--7--7--7-------------|
-----------------------------|--7---|----------------------|
-----------------------------|------|----------------------|
-----------------------------|------|----------------------|
 
 
  E  E  S S S  E.  S S    E  E  S S E  E  S S    E  E  S S S  E.  S S  
-----------------------|----------------------|-----------------------|
--5--5-----------------|----------5-6--6--6-8-|--5--5-----------------|
--------7-5-5h-7-----5-|--7--7--7-------------|--------7-5-5h-7-----5-|
-------------------7---|----------------------|-------------------7---|
-----------------------|----------------------|-----------------------|
-----------------------|----------------------|-----------------------|
 
 
  E  E  S S E  E  S S    E  E  S S S E.  S S    E  E  S S E  S S E   
--------------------5-|--6--6--5---5---------|----------5-----------|
----------6-8--8--8---|----------8---------5-|--6--6--8------5-6-5--|
--7--7--7-------------|--------------7---7---|------------7---------|
----------------------|----------------------|----------------------|
----------------------|----------------------|----------------------|
----------------------|----------------------|----------------------|
 
 
  E  S S S S S S S S S S    Q    S S Q.        Q    S S Q.      
-------------------------|--5---------------|--6---------------|
--5----------5-5-6-6-8-8-|-------6----------|-------6----------|
-----7-6-7-7-------------|---------7--------|---------7--------|
-------------------------|-----------7------|-----------8------|
-------------------------|------------------|------------------|
-------------------------|------------------|------------------|
 
 
  Q    Q    Q        E   E   E   S   Q     S    E  E  E  S   Q     S  
-----------------|---------------------------|-----------------------|
------------6----|--10--10--10--11p-10-----L-|--8--8--8--8h-10-----L-|
-------6---------|---------------------------|-----------------------|
--7--------------|---------------------------|-----------------------|
-----------------|---------------------------|-----------------------|
-----------------|---------------------------|-----------------------|
 
 
   E   E   E   S  Q     S    E  E  E  Q.         Q.       Q.      
--------------------------|------------------|-------------------|
--10--10--10--11-10-----L-|--8--6--5---------|--18b------18------|
--------------------------|-----------7------|-------------------|
--------------------------|------------------|-------------------|
--------------------------|------------------|-------------------|
--------------------------|------------------|-------------------|
 
 
   |--3--|  |--3--|  |--3--|  |--3--|        
   S  S  S  S  S  S  S  S  S  S  S  S  Q     
--------------------------------------------|
--15-18-15----15-18-15----15-18-15----18----|
-----------17----------17----------17-------|
--------------------------------------------|
--------------------------------------------|
--------------------------------------------|
 
 
   S  S  S  S  S  S  S  S  S  S  S  S     S  S  S  S  S  S  Q.      
--------------------------------------|----------------------------|
--15-15-15----------------------------|--------------------15------|
-----------14-14-14-------------------|-----------14-14-14---------|
--------------------15-15-15----------|--15-15-15------------------|
-----------------------------17-17-17-|----------------------------|
--------------------------------------|----------------------------|
 
 
   S  S  S  S  S  S  S  S  S  S  S  S     S  S  S  S  S  S  S  S  S  S  S  S  
-----13-17----13-17----13-18----13-18-|-----13-17----13-17----12-15----12-15-|
--15-------15-------15-------15-------|--13-------13-------13-------13-------|
--------------------------------------|--------------------------------------|
--------------------------------------|--------------------------------------|
--------------------------------------|--------------------------------------|
--------------------------------------|--------------------------------------|
 
 
   S  S  S  S  S  S  S  S  S  S  S  S     S S  S  S S  S  Q.                
-----10-15----10-15----10-13----10-13-|-----9-12----9-12-10------|---------|
--11-------11-------10-------10-------|--10------10--------------|---------|
--------------------------------------|--------------------------|---------|
--------------------------------------|--------------------------|---------|
--------------------------------------|--------------------------|---------|
--------------------------------------|--------------------------|---------|
 
 
   S  S  Q     S  S  E   E      E   E   E   E   Q      
--10-12-13----12-10-----13--|-------------------------|
--------------------13------|--10---------------------|
----------------------------|------12--10--12--12b----|
----------------------------|-------------------------|
----------------------------|-------------------------|
----------------------------|-------------------------|
 
 
  S. T S S E  S. T S S E     S. T S S S S E  E  E     S. T S S E  S. T S S E   
--------------------------|---------------5--------|--------------------------|
---------5-6-----6-5------|---------5-6-8----5-----|---------5-6-----6-5------|
--7--5-7------7------5-7--|--7--5-7-------------5--|--7--5-7------7------5-7--|
--------------------------|------------------------|--------------------------|
--------------------------|------------------------|--------------------------|
--------------------------|------------------------|--------------------------|
 
 
  S. T S S S S E  E  E     S S  E.  S  S E   E  S    E   E  E   E  E   
---------------5--7--9--|-------------------------|-------------------|
---------5-6-8----------|-----------8-10-8--------|---------8--10--8--|
--7--5-7----------------|--7-9-10-----------10--9-|--L--10------------|
------------------------|-------------------------|-------------------|
------------------------|-------------------------|-------------------|
------------------------|-------------------------|-------------------|
 
 
  S  S E   E  E  E  E      E  E    
-----------------------|---------||
--8--------------------|---------||
----10-9--10--9--7--9--|------7--||
-----------------------|--10-----||
-----------------------|---------||
-----------------------|---------||
 
 
 
 
Duration Legend
---------------
W - whole
H - half
Q - quarter
E - 8th
S - 16th
T - 32nd
X - 64th
. - note dotted
|-n-|  - n-tuplets
 
 
Tablature Legend
----------------
L - tied note
x - dead note
g - grace note
(n) - ghost note
> - accentuded note
NH - natural harmonic
AH - artificial harmonic
TH - tapped harmonic
SH - semi harmonic
PH - pitch harmonic
h - hammer on
p - pull off
b - bend
br - bendRelease
pb - preBend
pbr - preBendRelease
brb - bendReleaseBend
\n/ - tremolo bar dip
\n - tremolo bar dive
-/n - tremolo bar Release up
/n\ - tremolo bar inverted dip
/n - tremolo bar return
-\n - tremolo bar Release down
S - shift slide
s - legato slide
/ -  slide into from below or out of upwards
\ -  slide into from above or out of downwards
~ - vibrato
W - wide vibrato
tr - tril'
TP - tremolo picking
T - tapping
S - slap
P - pop
< - fade in
^ - brush up
v - brush down

Добавлено: 07.02.2014
Другие материалы по этой песне:
  • Аккорды и текст

Страница создана 07.02.2014
http://primanota.ru/misc-unsigned-bands/pirates-meets-rock-hayatebune-chords.htm
Привет, Гость.
Предлагаем пройти революционный курс по гитаре.
Подарок от PrimaNota.Ru, забирай!