PrimaNota.ru - самый крупный в мире бесплатный архив песенных текстов, аккордов, табулатур и нот


Misc Unsigned Bands - Petruccifever - Speed Symphony - таба

Регистрация Запомнить меня
Войти через:  Facebook Google Twitter Vk Yandex Mail.ru

Misc Unsigned Bands - Petruccifever - Speed Symphony - таба

Печатать
Просмотров: 47
Уроки эстрадного вокала в Санкт-Петербурге
Its Actually a full step down there was no option for that....Any way here it is speed 
arranged by petruccifever.


D---------------8 0 5 0---------------7 0 4 0--------------8 0 5 0----------|
A---------------------------------------------------------------------------|
F---------------------------------------------------------------------------|
C---------------------------------------------------------------------------|
G-----7 0 3 0-------------------------------------7 0 3 0-------------------|
D-17------------------------7 0 4 0-----------------------------------------|


D------------10 0 7 0-------------12 0 8 0-------------13 0 10 0------------|
A---------------------------------------------------------------------------|
F---------------------------------------------------------------------------|
C--------------------------------------------7 0 3 0------------------------|
G-----------------------7 0 3 0---------------------------------------------|
D---7 0 4 0-----------------------------------------------------------------|


D---------------------8 0 5 0 7 0 4 0---------------------------------------|
A---------------------------------------------------------------------------|
F-------------------------------------------------------10 9 7--------------|
C--------------------------------------------------5 7----------10 9 7------|
G--7 0 3 0--------------------------------- 5 7 8----------------------10 8-|
D------------7 0 4 0------------------5 7 8---------------------------------|

D---------------------------------------------------------------------------|
A---------------------------------------------------------------------------|
F------------------9 7 5---------------------------------7 5 4--------------|
C-------------3 5---------9 7 5---------------------2 3---------7 5 3-------|
G-------3 5 7--------------------8 7---------1 3 5---------------------7 5--|
D-3 5 7-------------------------------1 3 5---------------------------------|


D-----------7 0 4 0------------12 0 7 0--------------------------------------|
A----------------------------------------------------------------------------|
F--------------------------------------------------------10 9 7--------------|
C----------------------------------------------------5 7------- 10 9 7-------|
G----------------------------------------------5 7 8------------------- 10 8-|
D--7 0 4 0-----------12 0 7 0------------5 7 8-------------------------------|


D---------------------------------------------------------------------------|
A---------------------------------------------------------------------------|
F---------------------9 7 5------------------------------- 7 5 4------------|
C----------------3 5---------9 7 5-------------------- 2 3------- 7 5 3-----|
G---------3 5 7---------------------8 7-------- 1 3 5------------------ 7 5-|
D--3 5 7---------------------------------1 3 5------------------------------|


D-----------7 0 4 0----12 13 12 10------------------------------------------|
A---------------------------------13 12 10----------------------------------|
F-----------------------------------------13--------------------------------|
C---------------------------------------------------------------------------|
G------------------------------------------------3 7 3---3 7 3--------------|
D--7 0 4 0------------------------------------5-------5---------------------|

D---------------------------------------------------------------------------|
A---------------------------------------------------------------------------|
F---------------------------------------------------------------------------|
C--------------------3 7 3---3 7 3---6 9 6---6 9 6--------------------------|
G---2 5 2---2 5 2--5-------5-------7-------7---------3 7 3---3 7 3----------|
D-3-------3----------------------------------------5-------5----------------|


D---------------------------------------------------------------------------|
A---------------------------------------------------------------------------|
F------------------------------------------------------5 9 5---5 9 5--------|
C---------------------3 7 3---3 7 3--9 7 6-----------7-------7--------------|
G----2 5 2---2 5 2--5-------5--------------8 7 5----------------------------|
D--3-------3-------------------------------------8 7------------------------|

D--------------------1 5 1---1 5 1---4 7 4---4 7 4--------------------------|
A------------------3-------3-------5-------5--------------------------------|
F----4 7 4---4 7 4-----------------------------------5 9 5---5 9 5----------|
C--5-------5---------------------------------------7-------7----------------|
G---------------------------------------------------------------------------|
D---------------------------------------------------------------------------|

D--------------------1 5 1---1 5 1--7 5 4--------------8 12 8----8 12 8-----|
A------------------3-------3--------------6 5 3-----10--------10------------|
F----4 7 4---4 7 4------------------------------5 4-------------------------|
C--5-------5----------------------------------------------------------------|
G---------------------------------------------------------------------------|
D---------------------------------------------------------------------------|

D----7 10 7---7 10 7----13 17 13----13 17 13----16 19 16----16 19 16--------|
A--8--------8--------15----------15----------17----------17-----------------|
F---------------------------------------------------------------------------|
C---------------------------------------------------------------------------|
G---------------------------------------------------------------------------|
D---------------------------------------------------------------------------|

D-----8 12 8----8 12 8---7 10 7----13 17 13----13 17 13-19 17 16------------|
A--10--------10--------8--------15----------15-------------------18 17 15---|
F---------------------------------------------------------------------------|
C---------------------------------------------------------------------------|
G---------------------------------------------------------------------------|
D---------------------------------------------------------------------------|

D----------------------------------------------------15 17-17 15 13 12 15---|
A--------13 12 13---------------------------13 12 13------------------------|
F--17 16----------12 14-10 12 10 9 10 9 7 9---------------------------------|
C---------------------------------------------------------------------------|
G---------------------------------------------------------------------------|
D---------------------------------------------------------------------------|

D-13 12 10-----------------------------------------------15 17--17 15 13----|
A----------13----12 13-------------------------13--12 13--------------------|
F------------------------12 14--10 12 10 9 7 9------------------------------|
C---------------------------------------------------------------------------|
G---------------------------------------------------------------------------|
D---------------------------------------------------------------------------|

D--12 15 13 12----15--------------------------------------------------------|
A--------------15-----------------------------------------------------------|
F---------------------------------------------------------------------------|
C---------------------------------------------------------------------------|
G---------------------------------------------------------------------------|
D---------------------------------------------------------------------------|
Добавлено: 01.01.2014
Другие материалы по этой песне:
  • Аккорды и текст

Страница создана 01.01.2014
http://primanota.ru/misc-unsigned-bands/petruccifever-speed-symphony-chords.htm
Привет, Гость.
Предлагаем пройти революционный курс по гитаре.
Подарок от PrimaNota.Ru, забирай!