PrimaNota.ru - самый крупный в мире бесплатный архив песенных текстов, аккордов, табулатур и нот


Misc Unsigned Bands - Pergamum - Heavy Impact - таба

Регистрация Запомнить меня
Войти через:  Facebook Google Twitter Vk Yandex Mail.ru

Misc Unsigned Bands - Pergamum - Heavy Impact - таба

Печатать
Просмотров: 65
Band: Pergamum
Song: Heavy Impact
Album: Feel Life's Fear

Intro A x2
(Distortion)
E|--------------------------------|
B|--------------------------------|
G|--------------------------------|
D|---7---5---8---7---7h8p7*v------|
A|--------------------------------|
D|-0---0---0---0---0--------------|
PM .   .   .   .   .

E|----------------------------|
B|----------------------------|
G|----------------------------|
D|---7---5---8----------------|
A|--------------------5*b-----|
D|-0---0---0---000000---------|
PM .   ......

Intro B x4
(Distortion)
E|---------------------------------|
B|---------------------------------|
G|---------------------------------|
D|----------------------7*b---7*/8-|
A|----5*b---6*b---5*b--------------|
D|-00-----0-----0-----0-----0------|
PM ..     .     .     .     .

E|--------------------------|
B|--------------------------|
G|--------------------------|
D|--------------7-8---------|
A|----5---6---5-----5-5-6-5-|
D|-00---0---0---------------|
PM ..   .   . . . . . . . .

Post-Verse
(Chorus, Delay)
E|-------------------------------------------|
B|-------------------------------------------|
G|-------------------------------------------|
D|----77--------77--------55-----------5*-3*-|
A|-------5~~-------5~~-------3~~---3---------|
D|-00--------00--------33--------3---3-------|
PM .. .. .   .. .. .   .. .. .   . . . .  .

E|---------------------------------------------------|
B|---------------------------------------------------|
G|---------------------------------10-9-7-9-10-9-7h9-|
D|----1010--------1010------88-----------------------|
A|---------8~~---------8~~-----7~~-------------------|
D|-88----------88--------77--------------------------|
PM ..          ..        ..        .  . . . .  . . .

E|-------------------------------------------|
B|-------------------------------------------|
G|-------------------------------------------|
D|----77--------77--------55-----------5*-3*-|
A|-------5~~-------5~~-------3~~---3---------|
D|-00--------00--------33--------3---3-------|
PM .. .. .   .. .. .   .. .. .   . . . .  .

E|---------------------------------|--------|
B|---------------------------------|6-6-6-6-|Distortion
G|---------------------------------|9-9-9-9-|comes in on
D|----1010--------1010------88-----|--------|these chords.
A|---------8~~---------8~~-----7~~-|--------|
D|-88----------88--------77--------|--------|
PM ..          ..        ..

Bridge 1 x2
(Distortion)
Not sure about this bit. It sounds close though.
E|-------|  |----------|  |---------|  |--------|
B|-------|  |----------|  |---------|  |--------|
G|-------|  |----------|  |---------|  |--------|
D|-------|  |----------|  |---------|  |--------|
A|-8p7p5-|x8|-13p12p10-|x4|-12p10p8-|x2|-10p8p7-|x2
D|-T===T-|  |-T======T-|  |-T=====T-|  |-T====T-|

E|-------|  |----------|
B|-------|  |----------|
G|-------|  |----------|
D|-------|  |----------|
A|-8p7p5-|x8|-13p12p10-|x4
D|-T===T-|  |-T======T-|

On the last "10" of this tap, make it a pinch harmonic 
then play the next line.

E|-----------------|
B|-----------------|
G|-----------------|
D|-----------------|
A|-12-10-8--10-8-7-|
D|-----------------|

Pre-Bridge 2
(Distortion)
E|-----------------------------|
B|-----------------------------|
G|-----------------------------|
D|-00-3p2-00-3p2-00-3p2-00-3p2-|
A|-00-3p2-00-3p2-00-3p2-00-3p2-|
D|-00-3p2-00-3p2-00-3p2-00-3p2-|
PM ..     ..     ..     ..

E|-----------------------------|
B|---------------7--7--7~~\\---|
G|---------------10-10-10~\\---|
D|-00-3p2-00-3p2---------------|
A|-00-3p2-00-3p2---------------|
D|-00-3p2-00-3p2---------------|
PM ..     ..

Bridge 2 x2
(Distortion)
[GUITAR ONE]
Repeat this.
E|-----------------------------|
B|-----------------------------|
G|-----------------------------|
D|-00-3p2-00-3p2-00-3p2-00-3p2-|
A|-00-3p2-00-3p2-00-3p2-00-3p2-|
D|-00-3p2-00-3p2-00-3p2-00-3p2-|
PM ..     ..     ..     ..

[GUITAR TWO]
E|------------------------------|
B|------------------------------|
G|----10p9---10p9---10p9---10p9-|
D|------------------------------|
A|------------------------------|
D|------------------------------|

E|------------------------------------------|
B|------------------------------------------|
G|----12p10--12p10--12p10--14p12-15p14-17\\-|
D|------------------------------------------|
A|------------------------------------------|
D|------------------------------------------|

Bridge 3 x2
(Distortion)
E|------------------------------------------|
B|------------------------------------------|
G|-----14^-----12^-----15^-17-17b19r17-15*\-|
D|------------------------------------------|
A|------------------------------------------|
D|-000-----000-----000----------------------|
PM ...     ...     ...

Pre-Interlude 1
(Distortion)
[GUITAR ONE]
E|--------------------------------|
B|--------------------------------|
G|--------------------------------|
D|-0~~~~~~~~~~~~~~~~~~~~~~~~~~~~~-|
A|-0~~~~~~~~~~~~~~~~~~~~~~~~~~~~~-|
D|-0~~~~~~~~~~~~~~~~~~~~~~~~~~~~~-|

[GUITAR TWO]
(Chorus, Delay, Light Gain)
E|--------------------------------|
B|--------------------------------|
G|------------------5#~~~~~~~~~~~-|
D|---------------5#~~~~5#~~~~~~~~-|
A|------------5#~~~~~~~~~~5#~~~~~-|
D|--------------------------------|

E|-17----------|
B|----181715vv-|
G|-------------|
D|-------------|
A|-------------|
D|-------------|

Interlude 1
(Chorus, Delay, Light Gain)
E|---------------------12h13p12--|
B|-------------------------------|
G|-------------------------------|
D|-------------------------------|
A|------7h8-7h8------------------|
D|-8888---------101010-----------|
PM ....         . . .

E|-------------------------------|
B|-------------------------------|
G|-------------------5#5#--------|
D|-0~~~~~~~~~~~~~5#5#----5#------|
A|-0~~~~~~~5#5#5#----------5#----|
D|-0~~~~~~~~~~~~~~~~~~~~~~~~~~~~-|

E|---------------------12h13p12--|
B|-------------------------------|
G|-------------------------------|
D|-------------------------------|
A|------7h8-7h8------------------|
D|-8888---------101010-----------|
PM ....         . . .

E|------------------------------------|
B|------------------------------------|
G|-------------------10h12-12*12*vv\\-|
D|-------------10h12------------------|
A|-------10h12------------------------|
D|-10h12------------------------------|

E|---------------------12h13p12--|
B|-------------------------------|
G|-------------------------------|
D|-------------------------------|
A|------7h8-7h8------------------|
D|-8888---------101010-----------|
PM ....         . . .

E|-------------------------|
B|-------------------------|
G|-12-10p9h10p9-7-9-7------|
D|-------------------------|
A|--------------------5*vv-|
D|-------------------------|

E|---------------------12h13p12--|
B|-------------------------------|
G|-------------------------------|
D|-------------------------------|
A|------7h8-7h8------------------|
D|-8888---------101010-----------|
PM ....         . . .

(Distortion)
E|----------------------------|
B|----------6~~~--------------|
G|----------9~~~--------------|
D|----------------------------|
A|-0000-0-0------0000-0-0-5*^-|
D|-0000-0-0------0000-0-0-----|
PM .... . .      .... . .

Pre-Breakdown 1
(Distortion)
E|-------------------------|
B|-------------------------|
G|-------------------------|
D|-------------------------|
A|-/5vvv-/8vvv-\4vvv-/7vvv-|
D|-------------------------|
PM

Breakdown 1
(Distortion)
E|---------------------------|
B|-----4------------4--------|
G|-----7------------7--------|
D|---------------------------|x2
A|----------5*b----------5*b-|
D|-000---00-----000---00-----|
PM ...   ..     ...   ..

E|--------------------------|
B|-11-11~~-10-10~-9--8~~\\\-|
G|-14-14~~-13-13~-12-11~\\\-|
D|--------------------------|
A|--------------------------|
D|--------------------------|

E|-----------------|
B|-----------------|
G|-----------------|
D|-----------------|
A|-----------------|
D|-000000000000000-|
PM ...............

E|---------------------------|
B|-----4-----4-----4-----6-6-|
G|-----7-----7-----7-----9-9-|
D|---------------------------|x2
A|---------------------------|
D|-000---000---000---000-----|
PM ...   ...   ...   ...

Pre-Interlude 2 x2
(Distortion)--------------------
E|--------------------------|   |
B|--------------------------|   |
G|--------------------------|   |
D|--------------------------|   |
A|---10---7---8---5---8*-7*-|   |
D|-0----0---0---0---0-------|  x2
PM .    .   .   .   .           |
                                |
E|------------------|           |
B|------------------|           |
G|------------------|           |
D|-------------3~5~-|           |
A|---10---7----3~5~-|           |
D|-0----0---00-3~5~-|           |
PM .    .   ..                  |
                                |
--------------------------------

E|--------------------|
B|--------------------|
G|--------------------|
D|--------------------|x2
A|--------------------|
D|-0000-0000-0000-0000|
PM .... .... .... ....

Interlude 2
[GUITAR ONE]
(Distortion)
E|-------------------------------|
B|-------------------------------|
G|-------------------------------|
D|-0~~~~~~~~~~~~~~~~~~~~~~~~~~~~-|
A|-0~~~~~~~~~~~~~~~~~~~~~~~~~~~~-|
D|-0~~~~~~~~~~~~~~~~~~~~~~~~~~~~-|

[GUITAR TWO]
(Chorus)
E|-----------------------|
B|-----------------------|
G|-----------------------|
D|-----------------------|
A|---10-7---8-5---7h8p7--|
D|-0~~~~~~0~~~~~~~~~~~~~-|

E|-----------------------|
B|-----------------------|
G|-----------------------|
D|------------------5----|
A|---10-7---8-5---3---3--|
D|-0~~~~~~0~~~~~~~~~~~~~-|

E|-----------------------|
B|-----------------------|
G|-----------------------|
D|-----------------------|
A|---10-7---8-5---7h8p7--|
D|-0~~~~~~0~~~~~~~~~~~~~-|

E|-------------------|
B|-------------------|
G|----------------5#-|
D|----------------5#-|
A|---10-7---8-5---5#-|
D|-0~~~~~~0~~~~~~----|

Breakdown 2 x4
(Distortion)
E|------------------------|
B|------------------------|
G|------------------------|
D|------------------------|
A|----10-7----8-5-7h8p7*b-|
D|-00------00-------------|
PM ..      ..

E|------------------|
B|------------------|
G|------------------|
D|-------------10~~-|
A|----10-7-----10~~-|
D|-00------00--10~~-|
PM ..      ..

Pre-Outro A x2
(Distortion)
There's definitely mistakes in this but
it's all I've got.
E|---------------------------|
B|---------------------------|
G|---------------------------|
D|---------------------------|
A|-8p7p5-10p8p7-8p7p5-10p8p7-|
D|---------------------------|
PM . . . .  . . . . . .  . .

E|-----------------------------|
B|-----------------------------|
G|-----------------------------|
D|-----------------------------|
A|-8p7p5-10p8p7-12p1p8-10p8p7--|
D|-----------------------------|
PM . . . .  . . .  . . .  . .

Pre-Outro B
(Distortion)
E|---------------------------------------|
B|---------------------------------------|
G|-----14^-----12^-----15^-17*-17*^-15*^-|
D|---------------------------------------|
A|---------------------------------------|
D|-000-----000-----000-------------------|
PM ...     ...     ...

E|---------------------------------|
B|---------------------------------|
G|-----14^-----12^-----15^---------|
D|---------------------------------|
A|-------------------------0000000-|
D|-000-----000-----000-----0000000-|
PM ...     ...     ...     .......

E|-------|
B|-16~~~-|
G|-19~~~-|
D|-------|
A|-------|
D|-------|

Outro x2
(Distortion)
E|------------------------------------|
B|-----11\\---------11\\---------11\\-|
G|-----14\\---------14\\---------14\\-|
D|------------------------------------|
A|-0-0------00000-0------00000-0------|
D|-0-0------00000-0------00000-0------|
PM . .      ..... .      ..... ..

E|-----13-------13-------|
B|--------11-------11----|
G|-----------14-------14-|
D|-----------------------|
A|-000-------------------|
D|-000-------------------|
PM ...

End On
(Distortion)
E|-------------------------------|
B|-------------------------------|
G|-------------------------------|
D|-0~~~~~~~~~~~~~~~~~~~~~~~~~~~~-|
A|-0~~~~~~~~~~~~~~~~~~~~~~~~~~~~-|
D|-0~~~~~~~~~~~~~~~~~~~~~~~~~~~~-|

Tabbed by: Disturbed_EMG of Ultimate-Guitar. If you see this anywhere but UG, it's been stolen.
Добавлено: 25.12.2013
Другие материалы по этой песне:
  • Аккорды и текст

Страница создана 25.12.2013
http://primanota.ru/misc-unsigned-bands/pergamum-heavy-impact-chords.htm
Привет, Гость.
Предлагаем пройти революционный курс по гитаре.
Подарок от PrimaNota.Ru, забирай!