PrimaNota.ru - самый крупный в мире бесплатный архив песенных текстов, аккордов, табулатур и нот


Misc Unsigned Bands - Pergamum - Serpent - таба

Регистрация Запомнить меня
Войти через:  Facebook Google Twitter Vk Yandex Mail.ru

Misc Unsigned Bands - Pergamum - Serpent - таба

Печатать
Просмотров: 41
Band: Pergamum
Song: Serpent
Album: Feel Life's Fear

Tuning: Drop D

Intro
(Distortion)
E|-------------------------|
B|-19-17-19-20-19-17-19-20-|
G|-------------------------|
D|-------------------------|
A|-------------------------|
D|-------------------------|

E|---------------------------|
B|-19-16-19-20------19-20-22-|
G|-------------1717----------|
D|---------------------------|
A|---------------------------|
D|---------------------------|

E|-------------------------|
B|-19-17-19-20-19-17-19-20-|
G|-------------------------|
D|-------------------------|
A|-------------------------|
D|-------------------------|

This rundown is wrong but I can't make it out.
E|----------------------------------------|
B|-19-16-19-20*v-13p11p10-----------------|
G|-----------------------12p10p9----------|
D|------------------------------10p8p7----|
A|------------------------------------7*v-|
D|----------------------------------------|

Verse x4
(Distortion)
This bit's wrong as well, but I can't make it out.
E|--------------------------------------------------|
B|--------------------------------------------------|
G|-10910-979-121012-10910-10910-979-10910-12*b-10*b-|
D|--------------------------------------------------|
A|--------------------------------------------------|
D|--------------------------------------------------|

Interlude 1
(Chorus, Tremolo[It gives it the drop in and out effect])
E|---------------------------------------------|
B|---------------------------------------------|
G|---------------------------------------------|
D|---7---8---7---8---7-7~---7---8----3-3-3/5\2-|
A|---------------------------------------------|
D|-0---0---0---0---0------0---0---00-----------|

E|--------------------------------------------------|
B|--------------------------------------------------|
G|--------------------------------------------------|
D|---7---8---7---8---7-7~---7---8-------------------|
A|-----------------------------------8*8*-8*/10*\7*-|
D|-0---0---0---0---0------0---0---00----------------|
               Distortion comes in on these hamonics.

Breakdown 1 x2
(Distortion)
E|-------------|  |-----------|
B|-------------|  |-----------|
G|-------------|  |-----------|
D|-0-0-8p7p5h7-|x3|-3~3~3h5p2-|
A|-0-0-8p7p5h7-|  |-3~3~3h5p2-|
D|-0-0-8p7p5h7-|  |-3~3~3h5p2-|

Breakdown 2 x2
(Distortion)
E|--------------|----------------------|
B|--------------|----------------------|
G|--------------|----------------------|
D|-0~~~-/6~-5\1-|-----------------3#~~-|
A|-0~~~-/6~-5\1-|--------3#b-----------|
D|-0~~~-/6~-5\1-|-000000-----0000------|
PM                ......     ....

Post-Breakdown 2
(Distortion)
E|-------|  |--------|  |-------|  |-------|
B|-------|  |--------|  |-------|  |-------| 
G|-------|  |--------|  |-------|  |-------|
D|-------|  |--------|  |-------|  |-------|
A|-8p7p5-|x4|-10p7p5-|x4|-7p5p4-|x4|-5p4p1-|x4
D|-T===T-|  |-T====T-|  |-T===T-|  |-T===T-|

All this x2 then:

[GUITAR ONE]
E|-------------------------------|
B|-------------------------------|
G|-------------------------------|
D|-0~~~~~~~~~~~~~~~~~~~~~~~~~~~~-|
A|-0~~~~~~~~~~~~~~~~~~~~~~~~~~~~-|
D|-0~~~~~~~~~~~~~~~~~~~~~~~~~~~~-|

[GUITAR TWO]
Hits a divebomb here. But I don't have a tremello
on my guitar so I don't know where at. Probably 
7th fret, G String. I dunno.

Interlude 2 x4
(Distortion)
E|----------------------------|
B|----------------------------|
G|-------------------17-19-20-|
D|-------3#-------------------|
A|----------------------------|
D|-0000---0000--0000----------|

Post-Interlude 2
(Distortion)
E|-------------------------------|
B|-------------------------------|
G|-------------------------------|
D|-0~~~~~~~~~~~~~~~~~~~~~~~~~~~~-|
A|-0~~~~~~~~~~~~~~~~~~~~~~~~~~~~-|
D|-0~~~~~~~~~~~~~~~~~~~~~~~~~~~~-|

Interlude 3 x2
[GUITAR ONE]
(Light Gain, Chorus)
E|------------------------------------------------|
B|------------------------------------------------|
G|------------------------------------------------|
D|---------15~~~~~~~-------------14~~~~~~~--------|
A|-----13~-------------------13~------------------|
D|-12~-------------------12~----------------------|

[GUITAR TWO]
(Distortion)
E|------------------------------------------------|
B|------------------------------------------------|
G|------------------------------------------------|
D|------------------------------------------------|
A|-------------000-0-0--------------000-0-0-8v-7v-|
D|-------------000-0-0--------------000-0-0-------|
PM             ... . .              ... . .

Post Interlude 3
(Distortion)
E|-----|
B|-----|
G|-----|
D|-----|Play this note for 18 seconds.
A|-5tr-|
D|-----|

I know there's more to it than this but I can't
make it out.
Anyway, play this next.

E|---|
B|---|
G|---|
D|---|Play this note for 12 seconds.
A|---|
D|-0-|
PM .

Pre-Solo
(Distortion)
E|--------------7h10p7---|
B|-------------9------9--|
G|-------7-7h10--------7-|
D|-00-00-----------------|
A|-00-00-----------------|
D|-00-00-----------------|
PM .. ..

E|--------------------------|
B|-------"How's-------------|
G|------------Your----------|
D|-00-00----------Day-------|
A|-00-00-------------Been?"-|
D|-00-00--------------------|
PM .. ..

E|--------------7h10p7---|
B|-------------9------9--|
G|-------7-7h10--------7-|
D|-00-00-----------------|
A|-00-00-----------------|
D|-00-00-----------------|
PM .. ..

E|--------------7h10p7-------|
B|-------------9------9------|
G|-------7-7h10--------7*v\\-|
D|-00-00---------------------|
A|-00-00---------------------|
D|-00-00---------------------|
PM .. ..

Post-Solo x2
(Distortion)
E|----------------------------------------------|
B|----------------------------------------------|
G|---------7/8---------7/8---------7/8----------|
D|----------------------------------------------|
A|-00-0000-----00-0000-----00-0000-----00000000-|
D|-00-0000-----00-0000-----00-0000-----00000000-|
PM .. ....     .. ....     .. ....     ........

Interlude 4

[GUITAR ONE]
(Chorus, Light Gain, Delay)
E|--------------------------------|
B|--------------------------------|
G|--------------------------------|
D|----787----575------------------|
A|-55-----44--------787------8108-|
D|---------------88-----1010------|

[GUITAR TWO]
(Light Gain, Chorus)
E|---------------------------------|
B|----------------------15-151415v-|
G|---------------------------------|
D|---------------------------------|
A|---------------------------------|
D|---------------------------------|

[GUITAR ONE]
(Chorus, Light Gain, Delay)
E|--------------------------------|
B|--------------------------------|
G|--------------------------------|
D|----787----575------------------|
A|-55-----44--------787------8108-|
D|---------------88-----1010------|

E|---------------------------------|
B|---------------------------------|
G|---------------------------------|
D|----7810----578------------------|x2
A|-55------44--------787------8108-|
D|----------------88-----1010------|

Pre-Breakdown 3
(Distortion)
E|-----------------------------------|
B|-----------------------------------|
G|-----------------------------------|
D|-----------------------------------|
A|-000000000000000000000000000000000-|
D|-000000000000000000000000000000000-|
PM .................................

Breakdown 3
[GUITAR ONE]
(Distortion)
E|------------------------------------------------------|
B|------------------------------------------------------|
G|------------------------------------------------------|
D|---------3#~------------------------------------------|
A|---------------------3#^3#^---------3#---------3#^3#^-|
D|-000-000-----000-000--------000-000----000-000--------|
PM ... ...     ... ...        ... ...    ... ...

[GUITAR TWO]
(Distortion)
E|-----------------------------------------------------|
B|-----------------------------------------------------|
G|-----------------------------------------------------|
D|-----------------------------------------------------|
A|-5tr~~~~~~~~4tr~~~~~~~~~~~1tr~~~~~~~~~8tr~~~~7tr~~~~-|
D|-----------------------------------------------------|

Post-Breakdown 3
[GUITAR ONE]
(Distortion)
E|----------------------------------------|
B|----------------------------------------|
G|----------------------------------------|
D|---------------------------------3#^3#^-|
A|-000000000000000000000000000000---------|
D|-000000000000000000000000000000---------|
PM ..............................

For every "0" that guitar one plays, 
guitar two plays:

E|-------|
B|-------|
G|-------|
D|-------|
A|-8p7p5-|
D|-------|
PM . . .

All this x2. then:

[GUITAR ONE]
(Distortion)
E|--------------------------------------------|
B|--------------------------------------------|
G|--------------------------------------------|
D|--------------------------------------------|
A|-000000-22-333333-55-3333333-55-33-22-33-55-|
D|-000000-22-333333-55-3333333-55-33-22-33-55-|
PM ...... .. ...... .. ....... .. .. .. .. ..

[GUITAR ONE]
(Distortion)
E|--------------------------------------------|
B|--------------------------------------------|
G|--------------------------------------------|
D|--------------------------------------------|
A|-000000-22-333333-55-3333333-55-33-22-33-55-|x4
D|-000000-22-333333-55-3333333-55-33-22-33-55-|
PM ...... .. ...... .. ....... .. .. .. .. ..

[GUITAR TWO]
(Distortion)
E|--------------------------------------------------|
B|--------------------------------------------------|
G|--------------------------------------------------|
D|--------------------------------------------------|
A|-555555-77-888888-1010-8888888-1010-88-77-88-1010-|x3
D|--------------------------------------------------|

E|--------------------------------------------------------|
B|--------------------------------------------------------|
G|--------------------------------------------------------|
D|--------------------------------------------------------|
A|-555555-77-888888-1010-8888888-1313-1212-1010-1212-1313-|
D|--------------------------------------------------------|

Breakdown 4 x2
[GUITAR ONE]
(Distortion)
E|------------------------------------------------------|
B|------------------------------------------------------|
G|------------------------------------------------------|
D|---------3#~------------------------------------------|
A|---------------------3#^3#^---------3#---------3#^3#^-|
D|-000-000-----000-000--------000-000----000-000--------|
PM ... ...     ... ...        ... ...    ... ...

[GUITAR TWO]
(Distortion)
E|-----------------------------------------------------|
B|-----------------------------------------------------|
G|-----------------------------------------------------|
D|-----------------------------------------------------|
A|-5tr~~~~~~~~4tr~~~~~~~~~~~1tr~~~~~~~~~8tr~~~~7tr~~~~-|
D|-----------------------------------------------------|

Post Breakdown 4
(Distortion)
E|-1718-1718-|-12b13r12b13r12b13r12b13r12b13^\\-|
B|-----------|----------------------------------|
G|-----------|----------------------------------|
D|-----------|----------------------------------|
A|-----------|----------------------------------|
D|-----------|----------------------------------|

"Bite me."

Outro A x2
(Distortion)
E|--------------------------------------------|
B|--------------------------------------------|
G|--------------------------------------------|
D|--------------------------------------------|
A|--------------------------10p7----8p5---7*v-|
D|-0000-000~~-0000~-0000-00------00-----0-----|
PM .... ...   ....  .... ..      ..

Outro B x2
[GUITAR ONE]
(Distortion)
E|--------------------------------------------|
B|--------------------------------------------|
G|--------------------------------------------|
D|--------------------------------------------|
A|--------------------------10p7----8p5---7*v-|
D|-0000-000~~-0000~-0000-00------00-----0-----|
PM .... ...   ....  .... ..      ..

[GUITAR TWO]
E|--------------------------------|
B|---------5\\---5\\--------5\\---|
G|---------8\\---8\\--------8\\---|
D|--------------------------------|
A|-0000-00----00--0000~-0000---00-|
D|-0000-00----00--0000~-0000---00-|
PM .... ..    ..  ....  ....   ..

Outro C x2
[GUITAR ONE]
(Distortion)
E|-------------------------------|
B|-------------------------------|
G|-------------------------------|
D|-------------------------------|
A|-0000-000-0000-00-0000-0000-00-|
D|-0000-000-0000-00-0000-0000-00-|
PM .... ... .... .. .... .... ..

[GUITAR TWO]
(Distortion)
E|------------------------------------|
B|------------------------------------|
G|------------------------------------|
D|-15vv-17-19vv-20-19v-24-22-20-19-20-|
A|------------------------------------|
D|------------------------------------|

E|-------------------------------|
B|-------------------------------|
G|-------------------------------|
D|-12vv-11-12vv-8-7v-12-11-15-14-|
A|-------------------------------|
D|-------------------------------|

Outro D
[GUITAR ONE]
(Distortion)
E|-------------------------------|
B|-------------------------------|
G|-------------------------------|
D|-------------------------------|
A|-0000-000-0000-00-0000-0000-00-|
D|-0000-000-0000-00-0000-0000-00-|
PM .... ... .... .. .... .... ..

[GUITAR TWO]
(Distortion)
E|-----------------------------------------------|
B|-----5\\-----5\\--------5\\--------------------|
G|-----8\\-----8\\--------8\\--------------------|
D|-----------------------------------------------|
A|-000-----000--0000~-000---00-10p7----8p5---7*v-|
D|-000-----000--0000~-000---00------00-----0-----|
PM .... ..    ..  ....  ....   ..   ..     .

Outro E
[GUITAR ONE]
(Distortion)
E|-------------------------------------------------|
B|-------------------------------------------------|
G|-------------------------------------------------|
D|-------------------------------------------------|
A|-0000-000-0000-00-0000-0000-00-10p7----8p5---7*v-|
D|-0000-000-0000-00-0000-0000-00------00-----0-----|
PM .... ... .... .. .... .... ..      ..     .

[GUITAR TWO]
(Distortion)
E|--------------------------------------------|
B|-------------------------------5~-5~-5~~~\\-|
G|-------------------------------8~-8~-8~~~\\-|
D|--------------------------------------------|
A|--------------------------------------------|
D|--------------------------------------------|

End the song with some feedback.

Tabbed by: Disturbed_EMG of Ultimate-Guitar. If you see this anywhere but UG, it's been stolen.
Добавлено: 02.12.2013
Другие материалы по этой песне:
  • Аккорды и текст

Страница создана 02.12.2013
http://primanota.ru/misc-unsigned-bands/pergamum-serpent-chords.htm
Привет, Гость.
Предлагаем пройти революционный курс по гитаре.
Подарок от PrimaNota.Ru, забирай!