PrimaNota.ru - самый крупный в мире бесплатный архив песенных текстов, аккордов, табулатур и нот


Misc Unsigned Bands - Pergamum - Valiant Verification - таба

Регистрация Запомнить меня
Войти через:  Facebook Google Twitter Vk Yandex Mail.ru

Misc Unsigned Bands - Pergamum - Valiant Verification - таба

Печатать
Просмотров: 64
Band: Pergamum
Song: Valiant Verification
Album: Feel Life's Fear

Tuning: Drop D

Intro
(Distortion)
E|--------------------------------|
B|--------------------------------|
G|--------------------------------|
D|--------------------------------|
A|----5---7---8-----5---7--8------|
D|-00---0---0----00---0--0--------|
PM ..   .   .    ..   .  .

E|-------------------------------|
B|-------------------------------|
G|-------------------------------|
D|-------------------------------|
A|----10---12---13*----1---4--7--|
D|-00----0----0-----00---0--0----|
PM ..    .    .     ..   .  .

E|--------------------------------|
B|--------------------------------|
G|--------------------------------|
D|--------------------------------|
A|----5---7---8-----5---7--8------|
D|-00---0---0----00---0--0--------|
PM ..   .   .    ..   .  .

[GUITAR ONE]
E|-------------------------------|
B|-7~~~~~\\\\--------------------|
G|-10~~~~\\\\--------------------|
D|-------------------------------|
A|-------------------------------|
D|-------------------------------|

[GUITAR TWO]
E|-------------------------------|
B|-------------------------------|
G|-------------------------------|
D|-------------------------------|
A|----10---12---13*----1---4--7--|
D|-00----0----0-----00---0--0----|
PM ..    .    .     ..   .  .

Verse x2
(Distortion)
E|--------------------------------|
B|--------------------------------|
G|--------------------------------|
D|--------------------------------|
A|----5---7---8-----5---7--8------|
D|-00---0---0----00---0--0--------|
PM ..   .   .    ..   .  .

E|-------------------------------|
B|-------------------------------|
G|-------------------------------|
D|-------------------------------|
A|----10---12---13-----1---4--7--|
D|-00----0----0-----00---0--0----|
PM ..    .    .     ..   .  .

Chorus
(Distortion)
NOTE: Tapping in double time.
E|-------|  |--------|  |-------|  |-------|
B|-------|  |--------|  |-------|  |-------|
G|-------|  |--------|  |-------|  |-------|
D|-------|  |--------|  |-------|  |-------|
A|-8p7p5-|x8|-10p8p7-|x8|-7p5p4-|x8|-8p7p5-|x8
D|-T===T-|  |-T====T-|  |-T===T-|  |-T===T-|

E|---------|  |----------|  |--------|  |---------|
B|---------|  |----------|  |--------|  |---------|
G|---------|  |----------|  |--------|  |---------|
D|---------|  |----------|  |--------|  |---------|
A|-12p10p8-|x8|-13p12p10-|x8|-10p8p7-|x8|-12p10p8-|x8
D|-T=====T-|  |-T======T-|  |-T====T-|  |-T=====T-|

Post-Chorus
(Distortion)
E|--------------|
B|--------------|
G|--------------|
D|-0-00-000-000-|
A|-0-00-000-000-|
D|-0-00-000-000-|
PM . .. ... ...

Interlude 1
(Distortion)
E|-------------------------------------|
B|-------------------------------------|
G|-------------------------------------|
D|------3#-------3#-------3#-------3#^-|
A|-------------------------------------|
D|-0000---000000---000000---000000-----|
PM ....   ......   ......   ......

Post-Interlude 1 x2
(Distortion, Neck pickup for the bassy sound)
E|-----------------------------|
B|-----------------------------|
G|-----------------------------|
D|-----------------------------|
A|-------------------------7*b-|
D|-0-1310-0-128-0-107-0-85-----|

E|---------------------------|
B|---------------------------|
G|---------------------------|
D|---------------------------|
A|--------------------000000-|
D|-0-1310-0-128-0-10--000000-|
PM                    ......

Solo
(Distortion, Wah)
E|------------------------15h18p15-----|
B|-------------------------------------|
G|---------/17-14\\--14h17--------19\\-|
D|-/12-/12-----------------------------|
A|-------------------------------------|
D|-------------------------------------|


Start this tapping off at double time for
about 10 repeats, then slow it down 
gradually to normal time.
E|-17p15p13-|x18|-19^20-----|
B|-T======T-|   |-Slow-Bend-|
G|----------|   |-----------|
D|----------|   |-----------|
A|----------|   |-----------|
D|----------|   |-----------|


Pre-Breakdown 1
(Distortion, Wah)
E|---------------------------|
B|---------------------------|
G|-14-12-1415*v-14-12-1415*v-|
D|---------------------------|
A|---------------------------|
D|---------------------------|

E|-----------------------------------|
B|-----------------------------------|
G|-14-12-14--17-15-14----15-14-------|
D|--------------------17-------17-15-|
A|-----------------------------------|
D|-----------------------------------|

Breakdown 1 x2
(Distortion)
E|------------------------------------|
B|------------------------------------|
G|------------------------------------|
D|------------------------------------|
A|-5-5-555-6-66-666-3-33-333-5-55-5-5-|
D|------------------------------------|

Post-Breakdown 1
(Distortion)
Tap this for about 10 seconds.
E|-17p15p13-|
B|-T======T-|
G|----------|
D|----------|
A|----------|
D|----------|

E|-------------------------------------------|
B|-------------4\--4\------------------------|
G|-------------7\--7\--------------9*^-9*vvv-|
D|-------------------------------------------|
A|-5---5---5----------5---5---5--------------|
D|---0---0---00--0------0---0---00-----------|
PM   .   .   ..  .      .   .   ..

Chorus
(Distortion)
NOTE: Tapping in double time.
E|-------|  |--------|  |-------|  |-------|
B|-------|  |--------|  |-------|  |-------|
G|-------|  |--------|  |-------|  |-------|
D|-------|  |--------|  |-------|  |-------|
A|-8p7p5-|x8|-10p8p7-|x8|-7p5p4-|x8|-8p7p5-|x8
D|-T===T-|  |-T====T-|  |-T===T-|  |-T===T-|

E|---------|  |----------|  |--------|  |---------|
B|---------|  |----------|  |--------|  |---------|
G|---------|  |----------|  |--------|  |---------|
D|---------|  |----------|  |--------|  |---------|
A|-12p10p8-|x8|-13p12p10-|x8|-10p8p7-|x8|-12p10p8-|x8
D|-T=====T-|  |-T======T-|  |-T====T-|  |-T=====T-|

Outro
(Distortion)
E|--------------|
B|--------------|
G|--------------|
D|--------------|
A|-0-00-000-000-|
D|-0-00-000-000-|
PM . .. ... ...

Tabbed by: Disturbed_EMG of Ultimate-Guitar. If you see this anywhere but UG, it's been stolen.
Добавлено: 12.02.2014
Другие материалы по этой песне:
  • Аккорды и текст

Страница создана 12.02.2014
http://primanota.ru/misc-unsigned-bands/pergamum-valiant-verification-chords.htm
Привет, Гость.
Предлагаем пройти революционный курс по гитаре.
Подарок от PrimaNota.Ru, забирай!