PrimaNota.ru - самый крупный в мире бесплатный архив песенных текстов, аккордов, табулатур и нот


Misc Unsigned Bands - Love On The Lips Of A Whore - A Deadly Obsession - таба

Регистрация Запомнить меня
Войти через:  Facebook Google Twitter Vk Yandex Mail.ru

Misc Unsigned Bands - Love On The Lips Of A Whore - A Deadly Obsession - таба

Печатать
Просмотров: 102
Уроки эстрадного вокала в Санкт-Петербурге
Love On The Lips Of A Whore - A Deadly Obsession

Drop A tuning (A E A d f# b)

Intro (0:00-0:17)
Guitar 1
    ppp ppp     ppp ppp              ppp ppp       ppp ppp
b |-----------------------------------------------------------------------|
f#|-----------------------------------------------------------------------|
d |-------------------------6----------------------------------7----------|
A |---------8-5---------8-5---7-5-8----------7-4-----------5-4---5-4-5----|
E |-----------------------------------------------------------------------|
A |-000-000-----000-000--------------000-000-------000-000----------------|
  |                                                                       |
  |Guitar 2                                                               |
  | ppp ppp     ppp ppp              ppp ppp       ppp ppp                |
b |-----------------------------------------------------------------------|
f#|-----------------------------------------------------------------------|
d |-----------------------------------------------------------------------|
A |-----------------------------------------------------------------------|
E |-000-000-----000-000--------------000-000-------000-000----------------|
A |-000-000-----000-000--------------000-000-------000-000----------------|


    ppp ppp     ppp ppp              ppp ppp       ppp
b |----------------------------------------------------|
f#|----------------------------------------------------|
d |-------------------------6--------------------------|
A |---------8-5---------8-5---7-5-8----------7-4-------|
E |----------------------------------------------------|
A |-000-000-----000-000--------------000-000-------000-|
  |                                                    |
  | ppp ppp     ppp ppp              ppp ppp       ppp |
b |----------------------------------------------------|
f#|----------------------------------------------------|
d |----------------------------------------------------|
A |----------------------------------------------------|
E |-000-000-----000-000--------------000-000-------000-|
A |-000-000-----000-000--------------000-000-------000-|


    ppp              T
b |--------------5h9h12p9p5-----------|
f#|------------7------------7---------|
d |----------6----------------6-------|
A |--------7--------------------7-----|
E |------9------------------------9---|
A |-000-------------------------------|
  |                                   |
  | ppp                               |
b |-----------------------------------|
f#|-----------------------------------|
d |-----------------------------------|
A |-----------------------------------|
E |-000-------------------------------|
A |-000-------------------------------|




    ppp ppp     ppp ppp              ppp ppp       ppp ppp
b |-----------------------------------------------------------------------|
f#|-----------------------------------------------------------------------|
d |-------------------------6----------------------------------7----------|
A |---------8-5---------8-5---7-5-8----------7-4-----------5-4---5-4-5----|
E |-----------------------------------------------------------------------|
A |-000-000-----000-000--------------000-000-------000-000----------------|
  |                                                                       |
  |Guitar 2                                                               |
  | ppp ppp     ppp ppp              ppp ppp       ppp ppp                |
b |-----------------------------------------------------------------------|
f#|-----------------------------------------------------------------------|
d |-----------------------------------------------------------------------|
A |-----------------------------------------------------------------------|
E |-000~000~----000~000~-------------000~000~------000~000~---------------|
A |-000~000~----000~000~-------------000~000~------000~000~---------------|


    ppp ppp     ppp ppp              ppp ppp       ppp
b |----------------------------------------------------|
f#|----------------------------------------------------|
d |-------------------------6--------------------------|
A |---------8-5---------8-5---7-5-8----------7-4-------|
E |----------------------------------------------------|
A |-000-000-----000-000--------------000-000-------000-|
  |                                                    |
  | ppp ppp     ppp ppp              ppp ppp       ppp |
b |----------------------------------------------------|
f#|----------------------------------------------------|
d |----------------------------------------------------|
A |----------------------------------------------------|
E |-000~000~----000~000~-------------000~000~------000~|
A |-000~000~----000~000~-------------000~000~------000~|


    ppp              T
b |--------------5h9h12p9p5-----------|
f#|------------7------------7---------|
d |----------6----------------6-------|
A |--------7--------------------7-----|
E |------9------------------------9---|
A |-000-------------------------------|
  |                                   |
  | ppp                               |
b |-----------------------------------|
f#|-----------------------------------|
d |-----------------------------------|
A |-----------------------------------|
E |-000~------------------------------|
A |-000~------------------------------|


Verse (0:17-0:35)
Both guitars
    ppp ppp     ppp ppp              ppp ppp       ppp ppp
b |-----------------------------------------------------------------------|
f#|-----------------------------------------------------------------------|
d |-------------------------6----------------------------------7----------|
A |---------8-5---------8-5---7-5-8----------7-4-----------5-4---5-4-5----|
E |-----------------------------------------------------------------------|
A |-000-000-----000-000--------------000-000-------000-000----------------|


    ppp ppp     ppp ppp              ppp ppp       ppp
b |----------------------------------------------------|
f#|----------------------------------------------------|
d |-------------------------6--------------------------|
A |---------8-5---------8-5---7-5-8----------7-4-------|
E |----------------------------------------------------|
A |-000-000-----000-000--------------000-000-------000-|


    ppp              T
b |--------------5h9h12p9p5-----------|
f#|------------7------------7---------|
d |----------6----------------6-------|
A |--------7--------------------7-----|
E |------9------------------------9---|
A |-000-------------------------------| x2



Both guitars
(0:35-0:52)
       p p p       p p p p                  p p p       p p p p
b |-------------------------------------------------------------------------|
f#|-------------------------------------------------------------------------|
d |-------------------------------------------------------------------------|
A |-----------------------------8s7-----------------------------------------|
E |-5---------8p5-----------5h8-----4h7--5---------8p5-----------5h8-8s7-4h7|
A |----0-8-5-------8-5-8-5------------------0-8-5-------8-5-8-5-------------|

       p p p       p p p p
b |-----------------------------------------------------------------------|
f#|-----------------------------------------------------------------------|
d |-----------------------------------------------------------------------|
A |-----------------------------8s7---------------------------------------|
E |-5---------8p5-----------5h8-----4h7--8p5h8p5h8p5h8p5h8p5h8p5h8p5h8p5--|
A |----0-8-5-------8-5-8-5------------------------------------------------|

b |----------------------------------|
f#|----------------------------------|
d |----------------------------------|
A |----------------------------------|
E |-7p4h7p4h7p4h7p4h7p4h7p4h7p4h7p4--|
A |----------------------------------| x2



Guitar 1
(0:52-1:10)
b |-------------------------------------------------------|
f#|-------------------------------------------------------|
d |-------------------------------------------------------|
A |-------------7"------------------------7"--------------|
E |-5"-7"-8"-5"----8"-7"-8"---4"-5"-7"-4"----7"-5"-7"-----|
A |-------------------------------------------------------|
  |                                                       |
  |Guitar 2                                               |
b |-------------------------------------------------------|
f#|-------------------------------------------------------|
d |-------------------------------------------------------|
A |-------------7"------------------------7"--------------|
E |-5"-7"-8"-5"----8"-7"-8"---4"-5"-7"-4"----7"-5"-7"-----|
A |-------------------------------------------------------|


b |-----------------------------------------------------------------|
f#|-----------------------------------------------------------------|
d |----------------------------------------12-10-8------------------|
A |-------------7"---------------------------------12-10-8----------|
E |-5"-7"-8"-5"----8"-7"-8"---4"-5"-7"-4"------------------12-10----|
A |-----------------------------------------------------------------|
  |                                                                 |
b |-----------------------------------------------------------------|
f#|-----------------------------------------------------------------|
d |-----------------------------------------8-7-5-------------------|
A |-------------7"--------------------------------8-7-5-------------|
E |-5"-7"-8"-5"----8"-7"-8"---4"-5"-7"-4"---------------8-7---------|
A |-----------------------------------------------------------------|



(1:10-1:27)
      p   p   p   p   p   p   p   p   p   p   p   p   p   p   p
b |------------------------------------------------------------------|
f#|------------------------------------------------------------------|
d |------------------------------------------------------------------|
A |-----------------7-------------------------------7----------------|
E |-5---7---8---5-------8---7---8---4---5---7---4-------7---5---7----|
A |---0---0---0---0---0---0---0---0---0---0---0---0---0---0---0------|
  | ppppppppp       p                ppppppppp      p                |
b |------------------------------------------------------------------|
f#|------------------------------------------------------------------|
d |------------------------------------------------------------------|
A |------------------------------------------------------------------|
E |-000000000-------0----------------000000000------0----------------|
A |-000000000-------0----------------000000000------0----------------|

      p   p   p   p   p   p   p   p   p   p   p   p
b |-------------------------------------------------------------------------|
f#|-------------------------------------------------------------------------|
d |-------------------------------------------------12-10-8-----------------|
A |-----------------7---------------------------------------12-10-8---------|
E |-5---7---8---5-------8---7---8---4---5---7---4-------------------12-10---|
A |---0---0---0---0---0---0---0---0---0---0---0---0-------------------------|
  | ppppppppp                        ppppppppp                              |
b |-------------------------------------------------------------------------|
f#|-------------------------------------------------------------------------|
d |--------------------------------------------------8-7-5------------------|
A |--------------------------------------------------------8-7-5------------|
E |-000000000------------------------000000000-------------------8-7--------|
A |-000000000-------1b---------------000000000------------------------------|

      p   p   p   p   p   p   p   p   p   p   p   p   p   p   p
b |------------------------------------------------------------------|
f#|------------------------------------------------------------------|
d |------------------------------------------------------------------|
A |-----------------7-------------------------------7----------------|
E |-5---7---8---5-------8---7---8---4---5---7---4-------7---5---7----|
A |---0---0---0---0---0---0---0---0---0---0---0---0---0---0---0------|
  | ppppppppp       p                ppppppppp      p                |
b |------------------------------------------------------------------|
f#|------------------------------------------------------------------|
d |------------------------------------------------------------------|
A |------------------------------------------------------------------|
E |-000000000-------0----------------000000000------0----------------|
A |-000000000-------0----------------000000000------0----------------|

      p   p   p   p   p   p   p   p   p   p   p   p
b |-------------------------------------------------------------------------|
f#|-------------------------------------------------------------------------|
d |-------------------------------------------------12-10-8-----------------|
A |-----------------7---------------------------------------12-10-8---------|
E |-5---7---8---5-------8---7---8---4---5---7---4-------------------12-10---|
A |---0---0---0---0---0---0---0---0---0---0---0---0-------------------------|
  | ppppppppp       p       p   p    ppppppppp                              |
b |-------------------------------------------------------------------------|
f#|-------------------------------------------------------------------------|
d |--------------------------------------------------8-7-5------------------|
A |--------------------------------------------------------8-7-5------------|
E |-000000000-------0~------0~--0~---000000000-------------------8-7--------|
A |-000000000-------1~------1~--1~---000000000------------------------------|




Solo/Interlude
  (1:28-1:45)
b |-17-13----13------------------------------------------|
f#|-------15----15----15----17----15----14-15-14-15------|
d |----------------14----14----14----14------------------|
A |------------------------------------------------------|
E |------------------------------------------------------|
A |------------------------------------------------------|
  | pppp                          pppp   p               |
b |------------------------------------------------------|
f#|------------------------------------------------------|
d |------------------------------------------------------|
A |------------------------------------------------------|
E |-0000--------------------------0000---0---------------|
A |-0000--------------------------0000---0---------------|


b |-17-13----13------------------------------------------|
f#|-------15----15----15----17----15----14-15-14-15------|
d |----------------14----14----14----14------------------|
A |------------------------------------------------------|
E |------------------------------------------------------|
A |------------------------------------------------------|
  | pppp                                                 |
b |------------------------------------------------------|
f#|------------------------------------------------------|
d |------------------------------------------------------|
A |------------------------------------------------------|
E |-0000-------------------------------------------------|
A |-0000-------------------------------------------------|


b |-17-13----13------------------------------------------|
f#|-------15----15----15----17----15----14-15-14-15------|
d |----------------14----14----14----14------------------|
A |------------------------------------------------------|
E |------------------------------------------------------|
A |------------------------------------------------------|
  | pppp                          pppp   p               |
b |------------------------------------------------------|
f#|------------------------------------------------------|
d |------------------------------------------------------|
A |------------------------------------------------------|
E |-0000--------------------------0000---0---------------|
A |-0000--------------------------0000---0---------------|

b |-17-13----13------------------------------------------|
f#|-------15----15----15---------------------------------|
d |----------------14----14---15-14-12-------------------|
A |------------------------------------15-14-12----------|
E |---------------------------------------------15-14----|
A |------------------------------------------------------|
  | pppp                                                 |
b |------------------------------------------------------|
f#|------------------------------------------------------|
d |---------------------------12-10-8--------------------|
A |-----------------------------------12-10-8------------|
E |-0000--------------------------------------12-10------|
A |-0000-------------------------------------------------|



b |-17-13----13------------------------------------------|
f#|-------15----15----15----17----15----14-15-14-15------|
d |----------------14----14----14----14------------------|
A |------------------------------------------------------|
E |------------------------------------------------------|
A |------------------------------------------------------|
  | pppp                          pppp   p               |
b |------------------------------------------------------|
f#|------------------------------------------------------|
d |------------------------------------------------------|
A |------------------------------------------------------|
E |-0000--------------------------0000---0---------------|
A |-0000--------------------------0000---0---------------|


b |-17-13----13------------------------------------------|
f#|-------15----15----15----17----15----14-15-14-15------|
d |----------------14----14----14----14------------------|
A |------------------------------------------------------|
E |------------------------------------------------------|
A |------------------------------------------------------|
  | pppp                                                 |
b |------------------------------------------------------|
f#|------------------------------------------------------|
d |------------------------------------------------------|
A |------------------------------------------------------|
E |-0000-------------------------------------------------|
A |-0000------------------------------1b-----------------|


b |-17-13----13------------------------------------------|
f#|-------15----15----15----17----15----14-15-14-15------|
d |----------------14----14----14----14------------------|
A |------------------------------------------------------|
E |------------------------------------------------------|
A |------------------------------------------------------|
  | pppp                          pppp   p               |
b |------------------------------------------------------|
f#|------------------------------------------------------|
d |------------------------------------------------------|
A |------------------------------------------------------|
E |-0000--------------------------0000---0---------------|
A |-0000--------------------------0000---0---------------|

b |-17-13----13------------------------------------------|
f#|-------15----15----15---------------------------------|
d |----------------14----14---15-14-12-------------------|
A |------------------------------------15-14-12----------|
E |---------------------------------------------15-14----|
A |------------------------------------------------------|
  | pppp                                                 |
b |------------------------------------------------------|
f#|------------------------------------------------------|
d |---------------------------12-10-8--------------------|
A |-----------------------------------12-10-8------------|
E |-0000--------------------------------------12-10------|
A |-0000-------------------------------------------------|



Breakdown
Both Guitars (1:45-2:20)
    pppp    pppp    p    pppp         pppp    pppp    p    pppp
b |---------------------------------------------------------------------|
f#|---------------------------------------------------------------------|
d |---------------------------------------------------------------------|
A |---------------------------------------------------------------------|
E |-0000~---0000~---0~---0000~--------0000~---0000~---0~---0000~--------|
A |-1111~---1111~---1~---1111~--------1111~---1111~---1~---1111~--1b----| x2


Guitar 1
    pppp             pppp   p   pppp
b |-------------------------------------------------------|
f#|-------------------------------------------------------|
d |-------------------------------------------------------|
A |-------------------------------------------------------|
E |-0000---12p8h10---0000---0---0000----------------------|
A |-0000-------------0000---0---0000----------------------|
  |                                                       |
  |Guitar2                                                |
  | pppp             pppp   p   pppp                      |
b |-------------------------------------------------------|
f#|-------------------------------------------------------|
d |-------------------------------------------------------|
A |-------------------------------------------------------|
E |-0000---8p5h7-----0000---0---0000----------------------|
A |-0000-------------0000---0---0000----------------------|
  |                                                       |
  |Overdub                                                |
b |-------------------------------------------------------|
f#|-------------------------------------------------------|
d |-------------------------------------------------------|
A |-------------7"------------------------7"--------------|
E |-5"-7"-8"-5"----8"-7"-8"---4"-5"-7"-4"----7"-5"-7"-----|
A |-------------------------------------------------------| x4



Both Guitars
(2:20-End)
    ppp ppp     ppp ppp              ppp ppp       ppp ppp
b |-----------------------------------------------------------------------|
f#|-----------------------------------------------------------------------|
d |-------------------------6----------------------------------7----------|
A |---------8-5---------8-5---7-5-8----------7-4-----------5-4---5-4-5----|
E |-----------------------------------------------------------------------|
A |-000-000-----000-000--------------000-000-------000-000----------------|


    ppp ppp     ppp ppp              ppp ppp       ppp
b |----------------------------------------------------|
f#|----------------------------------------------------|
d |-------------------------6--------------------------|
A |---------8-5---------8-5---7-5-8----------7-4-------|
E |----------------------------------------------------|
A |-000-000-----000-000--------------000-000-------000-|


    ppp              T
b |--------------5h9h12p9p5-----------|
f#|------------7------------7---------|
d |----------6----------------6-------|
A |--------7--------------------7-----|
E |------9------------------------9---|
A |-000-------------------------------| x2



Guitar 1
    ppp ppp     ppp ppp              ppp ppp       ppp ppp
b |-----------------------------------------------------------------------|
f#|-----------------------------------------------------------------------|
d |-------------------------6----------------------------------7----------|
A |---------8-5---------8-5---7-5-8----------7-4-----------5-4---5-4-5----|
E |-----------------------------------------------------------------------|
A |-000-000-----000-000--------------000-000-------000-000----------------|
  |                                                                       |
  |Guitar 2                                                               |
  | ppp ppp     ppp ppp              ppp ppp       ppp ppp                |
b |-----------------------------------------------------------------------|
f#|-----------------------------------------------------------------------|
d |-----------------------------------------------------------------------|
A |-----------------------------------------------------------------------|
E |-000~000~----000~000~-------------000~000~------000~000~---------------|
A |-000~000~----000~000~-------------000~000~------000~000~---------------|


    ppp ppp     ppp ppp              ppp ppp       ppp
b |----------------------------------------------------|
f#|----------------------------------------------------|
d |-------------------------6--------------------------|
A |---------8-5---------8-5---7-5-8----------7-4-------|
E |----------------------------------------------------|
A |-000-000-----000-000--------------000-000-------000-|
  |                                                    |
  | ppp ppp     ppp ppp              ppp ppp       ppp |
b |----------------------------------------------------|
f#|----------------------------------------------------|
d |----------------------------------------------------|
A |----------------------------------------------------|
E |-000~000~----000~000~-------------000~000~------000~|
A |-000~000~----000~000~-------------000~000~------000~|


    ppp              T
b |--------------5h9h12p9p5-----------|
f#|------------7------------7---------|
d |----------6----------------6-------|
A |--------7--------------------7-----|
E |------9------------------------9---|
A |-000-------------------------------|
  |                                   |
  | ppp                               |
b |-----------------------------------|
f#|-----------------------------------|
d |-----------------------------------|
A |-----------------------------------|
E |-000~------------------------------|
A |-000~------------------------------|



    ppp ppp     ppp ppp              ppp ppp       ppp ppp
b |-----------------------------------------------------------------------|
f#|-----------------------------------------------------------------------|
d |-------------------------6----------------------------------7----------|
A |---------8-5---------8-5---7-5-8----------7-4-----------5-4---5-4-5----|
E |-----------------------------------------------------------------------|
A |-000-000-----000-000--------------000-000-------000-000----------------|
  |                                                                       |
  |                                                                       |
  | ppp ppp     ppp ppp              ppp ppp       ppp ppp                |
b |-----------------------------------------------------------------------|
f#|-----------------------------------------------------------------------|
d |-----------------------------------------------------------------------|
A |-----------------------------------------------------------------------|
E |-000-000-----000-000--------------000-000-------000-000----------------|
A |-000-000-----000-000--------------000-000-------000-000----------------|


    ppp ppp     ppp ppp              ppp ppp       ppp
b |----------------------------------------------------|
f#|----------------------------------------------------|
d |-------------------------6--------------------------|
A |---------8-5---------8-5---7-5-8----------7-4-------|
E |----------------------------------------------------|
A |-000-000-----000-000--------------000-000-------000-|
  |                                                    |
  | ppp ppp     ppp ppp              ppp ppp       ppp |
b |----------------------------------------------------|
f#|----------------------------------------------------|
d |----------------------------------------------------|
A |----------------------------------------------------|
E |-000-000-----000-000--------------000-000-------000-|
A |-000-000-----000-000--------------000-000-------000-|


    ppp              T
b |--------------5h9h12p9p5-----------|
f#|------------7------------7---------|
d |----------6----------------6-------|
A |--------7--------------------7-----|
E |------9------------------------9---|
A |-000-------------------------------|
  |                                   |
  | ppp                               |
b |-----------------------------------|
f#|-----------------------------------|
d |-----------------------------------|
A |-----------------------------------|
E |-000-------------------------------|
A |-000-------------------------------|


Both Guitars
b |-----|
f#|-----|
d |-----|
A |-----|
E |--0--|
A |--0--|
Добавлено: 11.09.2013
Другие материалы по этой песне:
  • Аккорды и текст

Страница создана 11.09.2013
http://primanota.ru/misc-unsigned-bands/love-on-the-lips-of-a-whore-a-deadly-obsession-chords.htm
Привет, Гость.
Предлагаем пройти революционный курс по гитаре.
Подарок от PrimaNota.Ru, забирай!