PrimaNota.ru - самый крупный в мире бесплатный архив песенных текстов, аккордов, табулатур и нот


Misc Unsigned Bands - M Giuliani - Waltz - таба

Регистрация Запомнить меня
Войти через:  Facebook Google Twitter Vk Yandex Mail.ru

Misc Unsigned Bands - M Giuliani - Waltz - таба

Печатать
Просмотров: 73
Уроки эстрадного вокала в Санкт-Петербурге
Artist : M. Giuliani
Transcribed by : Kevin J. Manges (fretmeister@bigfoot.com)
Downloaded From: http://members.tripod.com/~Braumeister/index.htm
Check for MP3 @: http://members.tripod.com/~Braumeister/mp3-index.htm
         Notes : This is best viewed in Courier New, 10pt font.
     Difficulty: Easy
           Date: 26 DEC 02 2230
================================================================================


                                  Waltz                                    


Transcribed by Kevin J. Manges                                     Waltz 


                                                                           
E||---3----|--3-----2-----1-----|--0-----------------|--1-----------------|
B||--------|--------------------|--------1-----1-----|--------3-----3-----|
G||*-------|-----0-----0-----0--|-----0-----0-----0--|-----0-----0-----0--|
D||*-------|--------------------|--------2-----2-----|--------0-----0-----|
A||--------|--------0-----2-----|--3-----------------|--2-----------------|
E||--------|--3-----------------|--------------------|--------------------|


                                                               
|--0-----------3-----|--3-----2-----1-----|--0-----------------|
|--------1-----------|--------------------|--------1-----1-----|
|-----0-----0-----0--|-----0-----0-----0--|-----0-----0-----0--|
|--------2-----------|--------------------|--------2-----2-----|
|--3-----------------|--------0-----2-----|--3-----------------|
|--------------------|--3-----------------|--------------------|


                                                                    
|--1-----------------|-------------||--0-----||------0-----0--------|
|--------3-----0-----|--1----------||-----3--||---1-----4-----1-----|
|-----0-----0-----0--|------------*||--------||*-----------------2--|
|--------0-----0-----|--2---------*||--------||*--------------------|
|--2-----------------|-------3-----||--------||---0-----------------|
|--------------------|-------------||--------||---------------------|


                                                            
|-------------------|--------------------|--0---------0--1--|
|-----0-------------|-----------0--1--3--|------------------|
|--1-------------1--|--2--1--2-----------|--1---------------|
|--------2----4-----|--3-----------------|--2---------------|
|-------------------|--------------------|------------------|
|--0----------------|--------------------|-------0----------|


                                                               
|--3-----1-----0-----|--3-----1-----0-----|--------------------|
|--------------------|--------------------|--3-----1-----0-----|
|-----0-----0-----0--|-----0-----0-----0--|-----0-----0-----0--|
|--2-----0-----------|--2-----0-----------|--3-----2-----0-----|
|--------------3-----|--------------3-----|--------------------|
|--------------------|--------------------|--------------------|


 1.                   2.               
|------------0------||------------||
|--1------------3---||--1---------||
|------------------*||------------||
|--2---------------*||--2---------||
|-------3-----------||-------3----||
|-------------------||------------||
Добавлено: 28.06.2013
Другие материалы по этой песне:
  • Аккорды и текст

Страница создана 28.06.2013
http://primanota.ru/misc-unsigned-bands/m-giuliani-waltz-chords.htm
Привет, Гость.
Предлагаем пройти революционный курс по гитаре.
Подарок от PrimaNota.Ru, забирай!