PrimaNota.ru - самый крупный в мире бесплатный архив песенных текстов, аккордов, табулатур и нот


Misc Unsigned Bands - Lovers Only Last For The Season - Boy When Shes Done With You 4th Degree Burns Will Exist - таба

Регистрация Запомнить меня
Войти через:  Facebook Google Twitter Vk Yandex Mail.ru

Misc Unsigned Bands - Lovers Only Last For The Season - Boy When Shes Done With You 4th Degree Burns Will Exist - таба

Печатать
Просмотров: 45
|--------------------------------------0-0-0-0-0--0-0--0-0--0-0-0-0-|
|13----------------------------10------6-6-6-6-6--6-6--6-6--6-6-6-6-|
|10----------------------------9-------7-7-7-7-7--7-7--7-7--7-7-7-7-|
|8-(x16)7-7--7-7--3-3----------12-(x16)8-8-8-8-8--8-8--8-8--8-8-8-8-|
|X------7-7--7-7--3-3--000-000-8-------5-5-5-5-5--5-5--5-5--5-5-5-5-|
|12-----7-7--7-7--3-3--000-000-8-------5-5-5-5-5--5-5--5-5--5-5-5-5-|
                       *** ***

|----------------------------------------------------------------------|
|13--------------------------------------------------------------------|
|10----------------------------14----9----11----17----15----14----15---|
|8-(x16)7-7--7-7--3-3----------X-(x8)X(x4)X-(x4)X-(x4)X-(x4)X-(x4)X-(x4|
|X------7-7--7-7--3-3--000-000-12----7----9-----15----13----12----13---|
|12-----7-7--7-7--3-3--000-000-----------------------------------------|
                       *** ***
|-----------------------------------------------------------|
|-------8-----10----11-----11-11--11-11--10-10--10-10--10---|
|-------X-----X-----X------X--X---X--X---X--X---X--X---X----|
|10-----10----10----10-----10-10--10-10--10-10--10-10--10---|
|10(x16)10(x8)10(x8)8-(x16)8--8---8--8---8--8---8--8---8-(x4|
|10-----10----10----8------8--8---8--8---8--8---8--8---8----|

|------------------------------------------------|
|------------------------------------------------|
|------------------------------------------------|
|5-5--5-5--5-5--5-5--8-8-8-8-3-3--3-3--0-0--0-0--|
|5-5--5-5--5-5--5-5--8-8-8-8-3-3--3-3--0-0--0-0--|
|5-5--5-5--5-5--5-5--8-8-8-8-3-3--3-3--0-0--0-0--|

|--------------------------------------------------------|
|--------------------------------------------------------|
|--------------------------------------------------------|
|5-5--5-5--5-5--5-5--8-8-8-8-3-3--3-3--1-1--1-1--1-1-1-1-|
|5-5--5-5--5-5--5-5--8-8-8-8-3-3--3-3--1-1--1-1--1-1-1-1-|
|5-5--5-5--5-5--5-5--8-8-8-8-3-3--3-3--1-1--1-1--1-1-1-1-|

|-------------------------------------------------------------|
|-------------------------------------------------------------|
|-------------------------------------------------------------|
|8-----7----5-----8-----10----7----5-----8--8--8--8--7---5----|
|6(x12)5(x4)3(x16)6(x12)8-(x4)5(x6)3(x10)6--6--6--6--5---3(x16|
|5-----3----1-----5-----8-----3----1-----5--5--5--5--3---1----|
                                            *     *  *
                        |Pre-Breakdown riff
|-----------------------|-----------------------------|
|-----------------------|-----------------------------|
|-----------------------|-----------------------------|
|8-----10----7----5-----|3-3--3-3--3-3--3-3--555-555--|
|6(x12)8-(x4)5(x6)3(x10)|1-1--1-1--1-1--1-1--333-333--|
|5-----8-----3----1-----|1-1--1-1--1-1--1-1--333-333--|
                         * *  * *  * *  * *  *** ***
|----------------------------------------------------------|
|----------------------------------------------------------|
|----------------------------------------------------------|
|------------------------------3-3--3-3--3-3--3-3--555-555-|
|000--000--000--000--000-000---1-1--1-1--1-1--1-1--333-333-|
|000--000--000--000--000-000---1-1--1-1--1-1--1-1--333-333-|
 ***  ***  ***  ***  *** ***   * *  * *  * *  * *  *** ***
|--------------------|
|--------------------|
|--------------------|
|--------------------|
|000--000--000--000--|
|000--000--000--000--|
 ***  ***  ***  ***     
|---------------------------------------------------------|
|---------------------------------------------------------|
|---------------------------------------------------------|
|0--0-0--0-0-0-0-0-0-0--0-0-0--0-0--0-0-------------------|
|0--0-0--0-0-0-0-0-0-0--0-0-0--0-0--0-0-------------------|
|1--1-1--1-1-1-1-1-1-1--1-1-1--1-1--1-1--3-3-3-3-3-3-3-3--|
 *  * *  * * * * * * *  * * *  * *  * *
|-----------------------------------------------------------|
|-----------------------------------------------------------|
|-----------------------------------------------------------|
|------------------------------------0--0-0--0-0-0-0-0-0-0--|
|000----0-0--0-0----0-0-0-0-0-0-0----0--0-0--0-0-0-0-0-0-0--|
|000----0-0--0-0----0-0-0-0-0-0-0----1--1-1--1-1-1-1-1-1-1--|
 ***    * *  * *    * * * * * * *    *  * *  * * * * * * *
|------------------------------------------------------------|
|------------------------------------------------------------|
|------------------------------------------------------------|
|0-0-0--0-0--0-0---------------------------------------------|
|0-0-0--0-0--0-0-------------------0000----0-0--0-0--0000----|
|1-1-1--1-1--1-1--3-3-3-3-3-3-3-3--0000----0-0--0-0--0000----|
 * * *  * *  * *                   ****    * *  * *  ****
|--------------|
|--------------|
|--------------|
|------------0-|
|0000--0000--0-|
|0000--0000--0-|
 ****  ****
|------------------------------------------------------|
|------------------------------------------------------|
|------------------------------------------------------|
|------------------------------------------------------|
|---------5-----5-----55555555-------------------------|
|-----------1-1---1-1---------222222223333333377777777-|
            * *   * *
|----------------------------------------------|
|----------------------------------------------|
|----------------------------------------------|
|3-----3-----3-3-3-3-3-3/7-----7---------------|
|------------------------------------10-10-10--|
|--5-5---5-5---------------8-8---8-8---8--8----|
Добавлено: 10.10.2013
Другие материалы по этой песне:
  • Аккорды и текст

Страница создана 10.10.2013
http://primanota.ru/misc-unsigned-bands/lovers-only-last-for-the-season-boy-when-shes-done-with-you-4th-degree-burns-will-exist-chords.htm
Привет, Гость.
Предлагаем пройти революционный курс по гитаре.
Подарок от PrimaNota.Ru, забирай!