PrimaNota.ru - самый крупный в мире бесплатный архив песенных текстов, аккордов, табулатур и нот


Misc Unsigned Bands - Luminites - Hurts So Good - таба

Регистрация Запомнить меня
Войти через:  Facebook Google Twitter Vk Yandex Mail.ru

Misc Unsigned Bands - Luminites - Hurts So Good - таба

Печатать
Просмотров: 55
Luminites from BGT
Done by ear. Think it's quite accurate.

Capo:3
Tuning:Standard

Listen to the song to get an idea of how to play it - http://www.youtube.com/watch?v=LnXWydn3nFo

    G    Cadd9    D     Em7    Dsus
E --3--  --3--  --2--  --3--  --3--
B --3--  --3--  --3--  --3--  --3--
G --0--  --0--  --2--  --0--  --2--
D --0--  --2--  --0--  --2--  --0--
A --2--  --3--  --x--  --2--  --x--
E --3--  --0--  --x--  --0--  --x--

Intro/First part of verse

     G            Cadd9       G
E|---------------------------------------------------|
B|---3-----3-----------3------3------0h1*------0-----|
G|---0-----0-----------0------0------0----h2---0-----|
D|-----------------------------------0---------------|
A|---------2--------3--------------------------------|
E|---3------------------------3----------------------|

*release hammer on straight away

     G            Cadd9       G        D     Dsus
E|----------------------------------------2---3------|
B|---3-----3-----------3------3--------3--3---3------|
G|---0-----0-----------0------0--------2-------------|
D|-------------------------------------0-------------|
A|---------2--------3--------------------------------|
E|---3------------------------3----------------------|

This repeats through the first part of the verse.

1st part lyrics:

First, you take my heart
In the palm of your hands
And you squeeze it tight
Then you take my mind
And then you play with it all night

You take my pride and you
Throw it up against the wall
You take me in your arms, baby
And bounce me like a rubber ball



Chords used in 2nd part and chorus

G
Cause, baby, those
Cadd9
Things you're doing to me
Em7
They hurt so bad but
D
It's worth all the misery

D                        
Don't you know that it 
G        Cadd9
Hurts so good

Don't you know that it
G        Cadd9
Hurts so good

Don't you know that it
G        Em7
Hurts so good
         D           
Hurts so good

Finishes with a G
Добавлено: 24.08.2013
Другие материалы по этой песне:
  • Аккорды и текст

Страница создана 24.08.2013
http://primanota.ru/misc-unsigned-bands/luminites-hurts-so-good-chords.htm
Привет, Гость.
Предлагаем пройти революционный курс по гитаре.
Подарок от PrimaNota.Ru, забирай!