PrimaNota.ru - самый крупный в мире бесплатный архив песенных текстов, аккордов, табулатур и нот


Misc Unsigned Bands - Davys Grey - Freak - бас-таба

Регистрация Запомнить меня
Войти через:  Facebook Google Twitter Vk Yandex Mail.ru

Misc Unsigned Bands - Davys Grey - Freak - бас-таба

Печатать
Просмотров: 132
This is my first tab, but it's by a very under rated band by the name of Davy's Grey.
Standard 4 string tuning (EADG)
Very Easy.

~~

Main Riff (Played through most of the song and chorus)

G|------------------------------------------
D|------------------------------------------
A|-----7-----7--7--7----5--5----3--3--3--5--
E|--5-----5---------------------------------

This is played at 0:31, 1:08 and 2:22
G|----------------------------------
D|----------------------------------
A|-----7-----7--7--7--12--10--7--6--
E|--5-----5-------------------------

Holds the rhythm for the solo at 1:33
G|-----------------------------------------------
D|-----------------------------------------------
A|--------------------------5--5--5--3--3--3--3--
E|--5--5--5--5--5--5--5--5-----------------------

Played at 1:47 during the lead guitar solo. Climbs down in pitch with guitar.
G|------------------------------------------
D|------------------------------------------
A|--12--12--10--10--7--7--6--6--3--3--3-----
E|---------------------------------------5--

For the last note just hold the Fifth fret on the E string.
Добавлено: 29.03.2015
Другие материалы по этой песне:
  • Аккорды и текст

Страница создана 29.03.2015
http://primanota.ru/misc-unsigned-bands/davys-grey-freak-chords.htm
Привет, Гость.
Предлагаем пройти революционный курс по гитаре.
Подарок от PrimaNota.Ru, забирай!