PrimaNota.ru - самый крупный в мире бесплатный архив песенных текстов, аккордов, табулатур и нот


Misc Unsigned Bands - Afterbath - Froot Why You Gotta Be So Cute - бас-таба

Регистрация Запомнить меня
Войти через:  Facebook Google Twitter Vk Yandex Mail.ru

Misc Unsigned Bands - Afterbath - Froot Why You Gotta Be So Cute - бас-таба

Печатать
Просмотров: 162
-------------------------------------------------------------------------------
                   Froot (Why You Gotta Be So Cute?) - AFTERBATH
-------------------------------------------------------------------------------
Tabbed by: wheatgreaser                                        Tuning: standard
           @takingthedative

E-mail: afterbathmusic@yahoo.com
        @afterbathmusic
       

          INTRO
G|---------------------------------------------------------------------------|
D|---------------------------------------------------------------------------|
A|---------------------------------------------------------------------------|
E|5-5-3-3--------------------------------------------------------------------|
  
  1+2+3+4+


          CHORUS (repeat as necessary)
G|---------------------------------------------------------------------------|
D|---------------------------------------------------------------------------|
A|-------03-3--33------------------------------------------------------------|
E|1-1--11--------03-3--3355-5--550-------------------------------------------|
  
  1+2+3+4+1+2+3+4+1+2+3+4+1+2+3+4+


          VERSE (repeat twice)
G|---------------------0-0----------------------------------------------------|
D|----------------------------------------------------------------------------|
A|--------33333333------------------------------------------------------------|
E|11111111--------33333-3-5555--55--------------------------------------------|
 
  1+2+3+4+1+2+3+4+1+2+3+4+1+2+3+4+

==========================================================
Добавлено: 31.03.2015
Другие материалы по этой песне:
  • Аккорды и текст

Страница создана 31.03.2015
http://primanota.ru/misc-unsigned-bands/afterbath-froot-why-you-gotta-be-so-cute-chords.htm
Привет, Гость.
Предлагаем пройти революционный курс по гитаре.
Подарок от PrimaNota.Ru, забирай!