PrimaNota.ru - самый крупный в мире бесплатный архив песенных текстов, аккордов, табулатур и нот


Misc Unsigned Bands - Kazik Na Zywo - 100 000 000 - таба

Регистрация Запомнить меня
Войти через:  Facebook Google Twitter Vk Yandex Mail.ru

Misc Unsigned Bands - Kazik Na Zywo - 100 000 000 - таба

Печатать
Просмотров: 59
 Band: KAZIK NA ZYWO
 Song: 100 000 000
 Standard tuning: EADGBe
 Tabbed by: whiteplash
 Official band website: www.knz.art.pl

This is my first song tabbed...  can be mistakes. Any objections and questions or comments
mail me:
maciek40@yahoo.com or whiplash1@o2.pl


Intro/Chorus:
(I'm not sure it's right)

E|----------------------------|
B|----------------------------|
G|---------3------------------|
D|--55-33--3-------1-----3~---|  8x
A|--55-33--1---1-3---3p1-1~---|
E|--33-11---------------------|


Verse:

"Wstalem dzis tak jak zwykle...."
E|---------------------------------------------------------|
B|---------------------------------------------------------|
G|---------------------------------------------------------|
D|-3--35--53--35--53--35--53--35--5~-3--35--53--35--53--35-|
A|-3--35--53--35--53--35--53--35--5~-3--35--53--35--53--35-|
E|-1--13--31--13--31--13--31--13--3~-1--13--31--13--31--13-|


"Patrze, jest w sklepach ceny obnizone o 100%"
E|----------------------------|
B|----------------------------|
G|----------------------------|
D|----------------------------|
A|--\-/3-3333333333333333-----|
E|--\-/1-1111111111111111-----|


Chorus:

"Walesa! Dawaj moje 100 000 000"
E|----------------------------|
B|----------------------------|
G|---------3------------------|
D|--55-33--3-------1-----3~---|  4x
A|--55-33--1---1-3---3p1-1~---|
E|--33-11---------------------|


Verse 2:

"Krzyczy starszy człowiek z tyłu..."
E|---------------------------------------------------------|
B|---------------------------------------------------------|
G|---------------------------------------------------------|
D|-3--35--53--35--53--35--53--35--5~-3--35--53--35--53--35-|
A|-3--35--53--35--53--35--53--35--5~-3--35--53--35--53--35-|
E|-1--13--31--13--31--13--31--13--3~-1--13--31--13--31--13-|


"Patrzę, no tak, w sklepach ceny obniżone o 100%"
E|----------------------------|
B|----------------------------|
G|----------------------------|
D|----------------------------|
A|--\-/3-3333333333333333-----|
E|--\-/1-1111111111111111-----|


Chorus:

"Walesa! Dawaj moje 100 000 000"
E|----------------------------|
B|----------------------------|
G|---------3------------------|
D|--55-33--3-------1-----3~---|  4x
A|--55-33--1---1-3---3p1-1~---|
E|--33-11---------------------|

Solo: on sax

guitar:  rhythm
E|-----------|
B|-----------|
G|-----------|
D|-3-8--5-3--|  4x
A|-3-8--5-3--|
E|-1-6--3-1--|

and

E|-------------------------------------|
B|-------------------------------------|
G|---------3-------------------------3-|
D|--55-33--3-------1-----3~---55-33--3-|
A|--55-33--1---1-3---3p1-1~---55-33--1-|
E|--33-11---------------------33-11----|


Verse 3:

"Ty na wiecu w naszej hucie..."
E|-------------------------------------------------------------------|
B|-------------------------------------------------------------------|
G|-------------------------------------------------------------------|
D|-3--35--53--35--53--35--53--35--5~-3--35--53--35--53--35--53--35~~-|
A|-3--35--53--35--53--35--53--35--5~-3--35--53--35--53--35--53--35~~-|  (a little longer verse)
E|-1--13--31--13--31--13--31--13--3~-1--13--31--13--31--13--31--13~~-|


"Gdzie mieszkalem w tej ulicy..."
E|-------------------|
B|-------------------|
G|-------------------|
D|-------------------|  4x
A|-3333333355555555--|
E|-1111111133333333--|


"Obserwuja nasze zycie urzednicy..."
E|-----------------|
B|-----------------|
G|-----------------|
D|-3-3-3-3-5-5-5-5-|  4x
A|-3-3-3-3-5-5-5-5-|
E|-1-1-1-1-3-3-3-3-|


"Obiecales 100 000 000,..."
E|-----------------|
B|-----------------|
G|-----------------|
D|-3-33333-5-55555-|  4x
A|-3-33333-5-55555-|
E|-1-11111-3-33333-|

"Moi wszyscy koledzy,..."
E|-----------------         ------------------------|
B|-----------------         ------------------------|
G|-----------------         ------------------------|
D|-3-3-3-3-5-5-5-5- 3x  and -3333333355555555-------|
A|-3-3-3-3-5-5-5-5-         -3333333355555555-------|
E|-1-1-1-1-3-3-3-3-         -1111111133333333-------|


Chorus:

"Walesa!..."
E|----------------------------           -----------------|
B|----------------------------           -----------------|
G|---------3------------------           -----------------|
D|--55-33--3-------1-----3~---  11x and  --5---3---8\-----|
A|--55-33--1---1-3---3p1-1~---           --5---3---8\-----|
E|--33-11---------------------           --3---1---6\-----|
Добавлено: 27.12.2013
Другие материалы по этой песне:
  • Аккорды и текст

Страница создана 27.12.2013
http://primanota.ru/misc-unsigned-bands/kazik-na-zywo-100-000-000-chords.htm
Привет, Гость.
Предлагаем пройти революционный курс по гитаре.
Подарок от PrimaNota.Ru, забирай!