PrimaNota.ru - самый крупный в мире бесплатный архив песенных текстов, аккордов, табулатур и нот


Misc Unsigned Bands - Killersnipe - Search And Destroy - таба

Регистрация Запомнить меня
Войти через:  Facebook Google Twitter Vk Yandex Mail.ru

Misc Unsigned Bands - Killersnipe - Search And Destroy - таба

Печатать
Просмотров: 53
Уроки эстрадного вокала в Санкт-Петербурге
I made this up
I know it sucks but 


Main riff
eb|-------------------|
Bb|---------------10~-|
Gb|------5-7-7-77-----|
Db|-2-22-5-7-7-77-----|
Ab|-2-22-3-5-5-55-----|
Eb|-0-00--------------|

Chorus
eb|-12-12-12-12-12-----------15--14-12-----|
Bb|---------------12-12-12-12--12----------|
Gb|----------------------------------------|
Db|------------------------------------14~-|
Ab|----------------------------------------|
Eb|----------------------------------------|

Solo
eb|-21~~-------------15~~~------------------10~-|
Bb|-----15-18h19-----------12h15p12h18----------|
Gb|------------------------------------11-12----|
Db|--------------12--------12-------------------|
Ab|---------------------------------------------|
Eb|---------------------------------------------|

Order: 
Riff
Chorus
Riff
Solo
Riff
Chorus (fade out)

Hope you like it :]


Добавлено: 20.11.2013
Другие материалы по этой песне:
  • Аккорды и текст

Страница создана 20.11.2013
http://primanota.ru/misc-unsigned-bands/killersnipe-search-and-destroy-chords.htm
Привет, Гость.
Предлагаем пройти революционный курс по гитаре.
Подарок от PrimaNota.Ru, забирай!