PrimaNota.ru - самый крупный в мире бесплатный архив песенных текстов, аккордов, табулатур и нот


Misc Unsigned Bands - Killem All 83 - Fade To Sanitarium - таба

Регистрация Запомнить меня
Войти через:  Facebook Google Twitter Vk Yandex Mail.ru

Misc Unsigned Bands - Killem All 83 - Fade To Sanitarium - таба

Печатать
Просмотров: 49
This is NOT a real song its just something I wrote the other day all i need is the
Bridge, and Solo and I Was wondering if you could help me out.  It is a total rip off of
Fade To Black and Welcome Home (Sanitaruim) but like there going to care that a 13 year 
is borrowing some licks and riffs.

Sounds Best on Acoustic
Intro
(Capo 5 Fret)
e-------------------------------------------------|
B-------------------------------------------------|
G--------0-----------0-----------0----------------|Play 2x
D------9---9-------9---9-------9---9--------------|
A----7-------7---7-------7---0-------0------------|
E--0-----------8-----------7-----------7--8-7-0---|

(Capo 3 Fret)
e-------------------------------------------------|
B-------------------------------------------------|
G--------0-----------0-----------0----------------|Play 2x
D------7---7-------7---7-------7---7--------------|
A----5-------5---5-------5---0-------0------------|
E--0-----------6-----------5-----------5--6-5-0---|

(Capo 1 Fret)
e-------------------------------------------------|
B-------------------------------------------------|
G--------0-----------0-----------0----------------|Play 2x
D------5---5-------5---5-------5---5--------------|
A----3-------3---3-------3---0-------0------------|
E--0-----------4-----------3-----------3--4-3-0---|

(No Capo)
e-------------------------------------------------|
B-------------------------------------------------|
G--------0-----------0-----------0----------------|Play 2x
D------4---4-------4---4-------4---4--------------|
A----2-------2---2-------2---0-------0------------|
E--0-----------3-----------2-----------2--3-2-0---|

Verse
e---------------------------------------------------------|
B---------------------------------------------------------|
G---------------------------------------------------------|
D--2-x-x--2-x-x--2-x-2--x-2-2-2--5-x-x--5-x-5--x-5-5-5----|
A--2-x-x--2-x-x--2-x-2--x-2-2-2--5-x-x--5-x-5--x-5-5-5----|
E--0-x-x--0-x-x--0-x-0--x-0-0-0--3-x-x--3-x-3--x-3-3-3----|

e------------------------------------|
B------------------------------------|
G------------------------------------|
D--4-x-x--4-x-4--x-4-4-4-\-5--5-\-7--|
A--4-x-x--4-x-4--x-4-4-4-\-5--5-\-7--|
E--2-x-x--2-x-2--x-2-2-2-\-3--3-\-5--|

Thats all I got so far if you have ANY suggestions please help me out.
Добавлено: 02.02.2014
Другие материалы по этой песне:
  • Аккорды и текст

Страница создана 02.02.2014
http://primanota.ru/misc-unsigned-bands/killem-all-83-fade-to-sanitarium-chords.htm
Привет, Гость.
Предлагаем пройти революционный курс по гитаре.
Подарок от PrimaNota.Ru, забирай!