PrimaNota.ru - самый крупный в мире бесплатный архив песенных текстов, аккордов, табулатур и нот


Misc Unsigned Bands - Keegan Mccormick - Sonata Of Dreams - таба

Регистрация Запомнить меня
Войти через:  Facebook Google Twitter Vk Yandex Mail.ru

Misc Unsigned Bands - Keegan Mccormick - Sonata Of Dreams - таба

Печатать
Просмотров: 45
 Intro
 4/4
  Gtr I
  E E E E E E  E E E E E E   E E E E E E  E E E E E E
|--------------------------------------------------------|
|-------0------------0-------------0------------0--------|
|---------0------------0-------------0------------0------|
|-----2-----2------2-----2-------0-----0------0-----0----|
|---2------------2-------------2------------2------------|
|-0------------0-------------3------------3--------------|


  E E E E E E  E E E E E E   E E E E E E  E E E E E E   +E
|--------------------------------------------------------------|
|-------0------------0-----------------------------------------|
|---------0------------0-----------0------------0--------------|
|-----2-----2------2-----2-------0---0--------0---0------------|
|---2------------2-------------2-------2----2-------2---(2)----|
|-0------------0-------------3------------3--------------------|


  E E E E E  +E  E E E E E +E  E E E E E +E  E E E E E +E
|-------------------------------------------------------------|
|----------------------1--------------------------------------|
|-------0------------2---2-(2)-------0-------------0----------|
|-----2---2--(2)---2---------------2---2-(2)-----0---0-(0)----|
|---2------------0---------------2-------------2--------------|
|-0----------------------------0-------------3----------------|


  E E E E E +E   E E E E E +E  E  +E  E  +E  E  +E
|------------------------------------------------------|
|----------------------1--------------0--(0)-----------|
|-------0------------2---2-(2)--------0--(0)-2--(2)----|
|-----2---2-(2)----2-----------2--(2)-0--(0)-2--(2)----|
|---2------------0-------------2--(2)-2--(2)-0--(0)----|
|-0----------------------------0--(0)-3--(3)-----------|


 Verse
  Em       Am            Em      G
  E E E    E E E E E     E E E   E E E E
|-------------------------------------------|
|----------1-1-1-1-1-------------0-0-0-0----|
|----------2-2-2-2-2-------------0-0-0-0----|
|-2-2-2----2-2-2-2-2-----2-2-2---0-0-0-0----|
|-2-2-2----0-0-0-0-0-----2-2-2---2-2-2-2----|
|-0-0-0------------------0-0-0---3-3-3-3----|


                         Chorus
  Em       Am              Em  G   A   Em  G   A
  E E E    E E E E E       E E E E     E E E E
|-----------------------|--------------------------|
|----------1-1-1-1-1----|------0-2---------0-2-----|
|----------2-2-2-2-2----|------0-2---------0-2-----|
|-2-2-2----2-2-2-2-2----|--2-2-0-2-----2-2-0-2-----|
|-2-2-2----0-0-0-0-0----|--2-2-2-0-----2-2-2-0-----|
|-0-0-0-----------------|--0-0-3-------0-0-3-------|


  Em  G A
  E E E E   E E E  E E E  E E E   +E    +E    +E
|----------------------------------------------------| Play verse and
|-----0-2--------------------------------------------| chorus again, then
|-----0-2---------------------2---(2)---(2)---(2)----| play interlude.
|-2-2-0-2-------2------0----2------------------------|
|-2-2-2-0-----2------2----0--------------------------|
|-0-0-3-----0------3---------------------------------|


 Interlude
  E E E E E E  E E E E E E   E E E E E E   E E E E E E
|-------0------------0-------------0-------------0--------|
|---------1------------1-------------1-------------1------|
|-----0-----0------0-----0-------0-----0-------0-----0----|
|---2------------2-------------2-------------2------------|
|-3------------3-------------3-------------3--------------|
|---------------------------------------------------------|


  E E E E E E   E E E E E E   E E E E E E   E E E E E E
|----------------------------------------------------------|
|-------2-------------2-------------2-------------2--------|
|-----2---2---------2---2---------2---2---------2---2------|
|---2-------2-----2-------2-----2-------2-----2-------2----|
|-0-------------0-------------0-------------0--------------|
|----------------------------------------------------------|


  E E E E E E   E E E E E E   E E E E E E   E E E E E E
|-------0-------------0-------------0-------------0--------|
|---------1-------------1-------------1-------------1------|
|-----0-----0-------0-----0-------0-----0-------0-----0----|
|---2-------------2-------------2-------------2------------|
|-3-------------3-------------3-------------3--------------|
|----------------------------------------------------------|


  E E E E E E   E E E E E E   E E E E E E   E E E E E E  +E  +E
|------------------------------------------------------------------|
|-------2-------------2-------------2-------------2----------------|
|-----2---2---------2---2---------2---2---------2---2--------------|
|---2-------2-----2-------2-----2-------2-----2-------2--(2)-(2)---|
|-0-------------0-------------0-------------0----------------------|
|------------------------------------------------------------------|


 Interlude
  C      Em     C      Em     C      Em
  E E E  E E E  E E E  E E E  E E E  E E E
|---------------------------------------------|
|-1-1-1---------1-1-1---------1-1-1-----------|
|-0-0-0---------0-0-0---------0-0-0-----------|
|-2-2-2--2-2-2--2-2-2--2-2-2--2-2-2--2-2-2----|
|-3-3-3--2-2-2--3-3-3--2-2-2--3-3-3--2-2-2----|
|-0-0-0--0-0-0--0-0-0--0-0-0--0-0-0--0-0-0----|


  C      A      C      A      C      A
  E E E  E E E  E E E  E E E  E E E  E E E   +E
|---------------------------------------------------|
|-1-1-1--2-2-2--1-1-1--2-2-2--1-1-1--2-2-2---(2)----|
|-0-0-0--2-2-2--0-0-0--2-2-2--0-0-0--2-2-2---(2)----|
|-2-2-2--2-2-2--2-2-2--2-2-2--2-2-2--2-2-2---(2)----|
|-3-3-3--0-0-0--3-3-3--0-0-0--3-3-3--0-0-0---(0)----|
|-0-0-0--0-0-0--0-0-0--0-0-0--0-0-0--0-0-0---(0)----|


  C                          A
  E  +E   E  +E   E   +E     E  +E    E  +E    E   +E
|---------------------------------------------------------| Play verse and
|-1--(1)--1--(1)--1---(1)----2--(2)---2--(2)---2---(2)----| chorus again,
|-0--(0)--0--(0)--0---(0)----2--(2)---2--(2)---2---(2)----| then play outro.
|-2--(2)--2--(2)--2---(2)----2--(2)---2--(2)---2---(2)----|
|-3--(3)--3--(3)--3---(3)----0--(0)---0--(0)---0---(0)----|
|-0--(0)--0--(0)--0---(0)----0--(0)---0--(0)---0---(0)----|


 Outro
  E E E  E E E  E E E  E E E  E E E E E E  E E E  E  +E   +E   +E
|--------0----------------------------------------0--(0)--(0)--(0)--|
|----------0-----------0--------------------------------------------|
|------------0-----------0----------0-------------------------------|
|-----2-------------2------2------2---2--------2--------------------|
|---2-------------2-------------2-------2----2----------------------|
|-0-------------0-------------0------------0------------------------|


Добавлено: 04.02.2014
Другие материалы по этой песне:
  • Аккорды и текст

Страница создана 04.02.2014
http://primanota.ru/misc-unsigned-bands/keegan-mccormick-sonata-of-dreams-chords.htm
Привет, Гость.
Предлагаем пройти революционный курс по гитаре.
Подарок от PrimaNota.Ru, забирай!