PrimaNota.ru - самый крупный в мире бесплатный архив песенных текстов, аккордов, табулатур и нот


Misc Unsigned Bands - Just Play Along - Renegades - таба

Регистрация Запомнить меня
Войти через:  Facebook Google Twitter Vk Yandex Mail.ru

Misc Unsigned Bands - Just Play Along - Renegades - таба

Печатать
Просмотров: 59
-------------------------------------------------------------------------------
                             RENEGADES - Just Play Along
-------------------------------------------------------------------------------
Tabbed by: JAKEJPA
E-mail:

Tuning: Drop D
                                     VERSE
e|---------------------------------------------------------------------------|
B|---------------------------------------------------------------------------|
G|--------5/4-----------------------2-4---------5/4--5------7----------------| 
D|-2------5/4--2------5------2------2-4--2------5/4--5--x8--7--x8------------| x2
A|-2--x9--3/2--2--x6--5--x3--2--x2--0-2--2--x9--3/2--3------5----------------|
E|-2-----------2------5------2-----------2-----------------------------------|


   PM PM       PM PM PM PM PM PM PM      PM 
e|---------------------------------------------------------------------------|
B|---------------------------------------------------------------------------|
G|--------5/4-----------------------2-4---------3/2--5------7----------------| 
D|-2------5/4--2------5------2------2-4--2------3/2--5--x8--7--x8------------| x2
A|-2--x9--3/2--2--x6--5--x3--2--x2--0-2--2--x9--5/4--3------5----------------|
E|-2-----------2------5------2-----------2-----------------------------------|

                                    CHORUS

e|---------------------------------------------------------------------------|
B|---------------------------------------------------------------------------|
G|-4-------------4------6-------4-------------4------6-----------------------|
D|-4--X5--2------4--X5--6--X3---4--X5--2------4--X5--6--X3-------------------|
A|-2------2--X3--2------4-------2------2--X3--2------4-----------------------|
E|--------2----------------------------2-------------------------------------|


e|---------------------------------------------------------------------------|
B|---------------------------------------------------------------------------|
G|-0-------------2------------2----------------------------------------------|
D|-2--X5--5------2--X5--5/99--2--X5--5------2--------------------------------|
A|-2------5--X3--0------5/99--0------5--X3--2--RINGOUT-----------------------|
E|--------5-------------5/99---------5------2--------------------------------|

                                    VERSE

e|---------------------------------------------------------------------------|
B|---------------------------------------------------------------------------|
G|---------------5/4-----------------------2-4---------5/4--5------7---------| 
D|--------2------5/4--2------5------2------2-4--2------5/4--5--x8--7--x8-----| 
A|--------2--x9--3/2--2--x6--5--x3--2--x2--0-2--2--x9--3/2--3------5---------|
E|-/12----2-----------2------5------2-----------2----------------------------|

   
e|---------------------------------------------------------------------------|
B|---------------------------------------------------------------------------|
G|-W----5/2-----------------------2-4---------3/2--5------7------------------| 
D|-A----5/2--2------5------2------2-4--2------3/2--5--x8--7--x8--------------|
A|-I----3/4--2--x6--5--x3--2--x2--0-2--2--x9--5/4--3------5------------------|
E|-T---------2------5------2-----------2-------------------------------------|


e|-xxxxxxxx------------------------------------------------------------------|
B|-xxxxxxxx------------------------------------------------------------------|
G|-xxxxxxxx----------5/4-----------------------2-4---------5/4--5------7-----| 
D|-xxxxxxxx----------5/4--2------5------2------2-4--2------5/4--5--x8--7--x8-| 
A|-xxxxxxxx----------3/2--2--x6--5--x3--2--x2--0-2--2--x9--3/2--3------5-----|
E|-xxxxxxxx---------------2------5------2-----------2------------------------|

                                    CHORUS

e|---------------------------------------------------------------------------|
B|---------------------------------------------------------------------------|
G|-4-------------4------6-------4-------------4------6-----------------------|
D|-4--X5--2------4--X5--6--X3---4--X5--2------4--X5--4--X3-------------------|
A|-2------2--X3--2------4-------2------2--X3--2------4-----------------------|
E|--------2----------------------------2-------------------------------------|


e|--------------------------------------------(5)----------------------------|
B|--------------------------------------------(5)(HARMONIC)------------------|
G|-2-------------2------------2---------------(5)----------------------------|
D|-2--X5--5------2--X5--5/99--2--X5--5---------------------------------------|
A|-0------5--X3--0------5/99--0------5--X3-----------------------------------|
E|--------5-------------5/99---------5---------------------------------------|

                                   BRIDGE

   PM PM PM PM PM PM PM PM PM PM PM PM PM PM PM PM PM PM PM PM PM PM PM PM PM 
e|---------------------------------------------------------------------------|
B|---------------------------------------------------------------------------|
G|---------------------------------------------------------------------------|
D|-22222222--44444444--5555555--777777777777777------------------------------|
A|-22222222--44444444--5555555--777777777777777------------------------------|
E|-22222222--44444444--5555555--777777777777777-/SLIDE PICK/-----------------|


   PM PM PM PM PM PM PM PM PM PM PM PM PM PM PM PM PM PM PM PM PM PM PM PM PM 
e|---------------------------------------------------------------------------|
B|---------------------------------------------------------------------------|
G|-4444444--55555555---------------------------------------------------------|
D|-4444444--55555555--5555555--777777--77-7----------------------------------|
A|-2222222--33333333--5555555--777777--77-7----------------------------------|
E|--------------------5555555--777777--77-7----------------------------------|


   PM PM PM PM PM PM PM PM 
e|---------------------------------------------------------------------------|
B|---------------------------------------------------------------------------|
G|-4444444--5555555--7777777--9999999----------------------------------------|
D|-4444444--5555555--7777777--9999999----------------------------------------|
A|-2222222--3333333--5555555--7777777----------------------------------------|
E|---------------------------------------------------------------------------|

e|---------------------------------------------------------------------------|
B|---------------------------------------------------------------------------|
G|-9999999--10101010--1212121212121212--14141414141414-----------------------|
D|-9999999--10101010--1212121212121212--14141414141414------------0----------|
A|-7777777--88888888--1010101010101010--12121212121212------------0----------|
E|----------------------------------------------------------/14---0----------|

e|---------------------------------------------------------------------------|
B|---------------------------------------------------------------------------|
G|-9999999--12121212121212--14141414141414--16b----------------16/-----------|
D|-9999999--12121212121212--14141414141414--16b--x48--TREMOLO--16/-----------|
A|-7777777--10101010101010--12121212121212--14-----------------14/-----------|
E|---------------------------------------------------------------------------|

               (RHYTHM)                 BREAKDOWN          LEAD        (After 4th play through of rhythm)

e|------------------------------------------\-----------------------------------------------------------|
B|-------------------------------------------\----------------------------------------------------------|
G|--------------------------------------------\------4-------6-------9-------12------14-----12-----4b/--|
D|----9999999--7--2--4--9999999--7--11--9-----/-x8---x--x16--x--x16--x--x16--x---x8--x--x4--x--x4--x-/--|
A|----9999999--7--2--4--9999999--7--11--9----/-------2-------4-------7-------10------12-----10-----2-/--|
E|----9999999--7--2--4--9999999--7--11--9---/-----------------------------------------------------------|





************************************

| /   slide up
| \   slide down
| h   hammer-on
| p   pull-off
| ~   vibrato
| +   harmonic
| x   Mute note
| b   Bend
| pb  Pre-bend
| br  Bend release
| pbr Pre-bend release
| brb Bend release bend

************************************
Добавлено: 22.04.2016
Другие материалы по этой песне:
  • Аккорды и текст

Страница создана 22.04.2016
http://primanota.ru/misc-unsigned-bands/just-play-along-renegades-chords.htm
Привет, Гость.
Предлагаем пройти революционный курс по гитаре.
Подарок от PrimaNota.Ru, забирай!