PrimaNota.ru - самый крупный в мире бесплатный архив песенных текстов, аккордов, табулатур и нот


Misc Unsigned Bands - Kenji Kawai - Virtual Crimes - таба

Регистрация Запомнить меня
Войти через:  Facebook Google Twitter Vk Yandex Mail.ru

Misc Unsigned Bands - Kenji Kawai - Virtual Crimes - таба

Печатать
Просмотров: 72
e---------------------------------------------------------------------|
B-12------12------12------12------12------12------12------12----------|
G----12-9----12-9----12-9----12-9----12-9----12-9----12-9----12-9-----|
D---------------------------------------------------------------------|
A---------------------------------------------------------------------|
E---------------------------------------------------------------------|

e---------------------------------------------------------------------|
B-10------10------10------10------10------10------10------10----------|
G----10-7----10-7----10-7----10-7----10-7----10-7----10-7----10-7-----|
D---------------------------------------------------------------------|
A---------------------------------------------------------------------|
E---------------------------------------------------------------------|

e---------------------------------------------------------------------|
B-12------12------12------12------12------12------12------12----------|
G----12-9----12-9----12-9----12-9----12-9----12-9----12-9----12-9-----|
D---------------------------------------------------------------------|
A---------------------------------------------------------------------|
E---------------------------------------------------------------------|

e---------------------------------------------------------------------|
B-9-----9-----9-----9-----9-----9-----9-----9-------------------------|
G---9-6---9-6---9-6---9-6---9-6---9-6---9-6---9-6---------------------|
D---------------------------------------------------------------------|
A---------------------------------------------------------------------|
E---------------------------------------------------------------------|

e-7-----------7-----------7-----------7-------------------------------|
B-------9-----------9-----------9-----------9-------------------------|
G---9-6---9-6---9-6---9-6---9-6---9-6---9-6---9-6---------------------|
D---------------------------------------------------------------------|
A---------------------------------------------------------------------|
E---------------------------------------------------------------------|

e---------------------------------------------------------------------|
B-8-----8-----8-----8-----8-----8-----8-----8-------------------------|
G---8-5---8-5---8-5---8-5---8-5---8-5---8-5---8-5---------------------|
D---------------------------------------------------------------------|
A---------------------------------------------------------------------|
E---------------------------------------------------------------------|
Добавлено: 22.04.2016
Другие материалы по этой песне:
  • Аккорды и текст

Страница создана 22.04.2016
http://primanota.ru/misc-unsigned-bands/kenji-kawai-virtual-crimes-chords.htm
Привет, Гость.
Предлагаем пройти революционный курс по гитаре.
Подарок от PrimaNota.Ru, забирай!