PrimaNota.ru - самый крупный в мире бесплатный архив песенных текстов, аккордов, табулатур и нот


Misc Unsigned Bands - Inera - Beat Down - бас-таба

Регистрация Запомнить меня
Войти через:  Facebook Google Twitter Vk Yandex Mail.ru

Misc Unsigned Bands - Inera - Beat Down - бас-таба

Печатать
Просмотров: 68
Уроки эстрадного вокала в Санкт-Петербурге
Inera - "Beat Down" Bass Guitar Tab

*electronic intro*

F|------------|------------|------------|------------|
C|------------|------------|------------|------------|
G|------------|------------|------------|----------3-|
C|0-0-00----0-|0-0-00----0-|0-0-00----0-|0-0-00---0--| *Repeats once*


F|------------|------------|------------|------------|
C|------------|------------|------------|------------|
G|------------|------------|------------|------------|
C|0-0-0--0-0-0|*synth*-----|0-0-0--0-0-0|*synth*-----|


F|------------|------------|------------|------------|
C|------------|------------|------------|------------|
G|------------|------------|------------|----------3-|
C|0-0-00----0-|0-0-00----0-|0-0-00----0-|0-0-00---0--|

*Verse: 'Now theres nothing more...'*

F|------------|------------|------------|------------|
C|------------|------------|------------|------------|
G|------------|------------|------------|----------3-|  *play to the beat of the 
C|0-0-0-0-0-0-|0-0-0-0-0-0-|0-0-0-0-0-0-|0-0-0-0-0---|   drums* play till chorus

*chorus: you're only gonna show me what to lose...*

F|------------|------------|------------|------------|
C|------------|------------|------------|------------|
G|------------|------------|------------|------------|
C|2~~~~~2-2~~~|222-2-2-2-2-|555--555----|5~~~~~~~~~~~|

F|------------|------------|------------|------------|
C|------------|------------|------------|------------|
G|------------|------------|------------|------------|
C|0~~~~~0-0~~~|000-0-0-0-0-|000--000~~~~|2~~3~~~~~~~~|

*scream part after chorus* "This Life...you live..."

F|------------|------------|------------|------------|
C|------------|------------|------------|------------|
G|------------|------------|------------|------------|
C|000--000----|*synth*-----|000--000----|*synth*-----|


F|------------|------------|------------|------------|
C|------------|------------|------------|------------|
G|------------|------------|------------|------------|
C|0-0-00-0--0-|0-0-3-3-5-55|0-0-00-0--0-|0-0-3-3-5-55|       both repeat again


*Verse 2 and Chorus 2 are the same*

*breakdown after edm part*

the notes go with the drums, it goes 0 then 3 then 5

then notes from verse

chorus again then 0-3-5 your way from there
Добавлено: 08.02.2016
Другие материалы по этой песне:
  • Аккорды и текст

Страница создана 07.02.2016
http://primanota.ru/misc-unsigned-bands/inera-beat-down-chords.htm
Привет, Гость.
Предлагаем пройти революционный курс по гитаре.
Подарок от PrimaNota.Ru, забирай!