PrimaNota.ru - самый крупный в мире бесплатный архив песенных текстов, аккордов, табулатур и нот


Misc Unsigned Bands - Tommy Castro - Make It Back To Memphis - бас-таба

Регистрация Запомнить меня
Войти через:  Facebook Google Twitter Vk Yandex Mail.ru

Misc Unsigned Bands - Tommy Castro - Make It Back To Memphis - бас-таба

Печатать
Просмотров: 55
Make It Back To Memphis
This track by Tommy Castro and The Painkillers taken from his 2009 album
Hard Believer. Tab by bass50611. This is a tremendous track. Think it's 
More or less as original although they could be the odd bum note.
Play a Walking Bass throughout the song. Comments bass254@btinternet.com 

Intro:
G|------------------------------------
D|------------------------------------
A|-----2-4------2-4------2-4------2-4-
E|-0-4------0-4------0-4------0-4-----


Chorus 1:
G|------------------------------------------------------------------------
D|-------------------------------------------------------------6--------6-
A|-----2-4------2-4------2-4------2-4------2-4------2-4----6-9------6-9---
E|-0-4------0-4------0-4------0-4------0-4------0-4------7--------7-------

G|-------------------------------------------------------------------
D|---------------------7-4-------4-----------------------------------
A|-----2-4------2-4-------7--4-7-------2-4-2-0----------2-4------2-4-
E|-0-4------0-4------5------5------0-4--------4-2---0-4------0-4-----

Verse 1:
G|------------------------------------------------------------------------
D|-------------------------------------------------------------6--------6-
A|-----2-4------2-4------2-4------2-4------2-4------2-4----6-9------6-9---
E|-0-4------0-4------0-4------0-4------0-4------0-4------7--------7-------

G|---------------------------------------------------------------------
D|-------------------------4-------------------------------------------
A|-----2-4------2-4----4-7----4-5-6------2-4-2-0----------2-4------2-4-
E|-0-4------0-4------5------5--------0-4--------4-2---0-4------0-4-----

Verse 2:
G|------------------------------------------------------------------------
D|-------------------------------------------------------------6--------6-
A|-----2-4------2-4------2-4------2-4------2-4------2-4----6-9------6-9---
E|-0-4------0-4------0-4------0-4------0-4------0-4------7--------7-------

G|---------------------------------------------------------------------
D|-------------------------4------4----------------------------2-2-2-2-
A|-----2-4------2-4----4-7----4-7--------2-4-2-0----------2-4----------
E|-0-4------0-4------5-------5-------0-4--------4-2---0-4--------------

Chorus 2:
G|------------------------------------------------------------------------
D|-------------------------------------------------------------6--------6-
A|-----2-4------2-4------2-4------2-4------2-4------2-4----6-9------6-9---
E|-0-4------0-4------0-4------0-4------0-4------0-4------7--------7-------

G|----------------------------------------------------------------------
D|---------------------7-4--------------------------------------2-2-2-2-
A|-----2-4------2-4-------7----4-5-6------2-4-2-0----------2-4----------
E|-0-4------0-4------5-------5--------0-4--------4-2---0-4--------------

Solo 1:
G|-------------------------------------------------------------1-----------
D|---------------------------------------------------------1-4-------------
A|-----2-4------2-4------2-4------2-4------2-4------2-4---2------2-4-5-6-7-
E|-0-4------0-4------0-4------0-4------0-4------0-4------------------------

G|---------------------------------------------------------------
D|------------------7-4------------------------------------------
A|-5-4-----------------7---4-5-6-7-5-4-2-0-----------2-4-----2-4-
E|----7---0-2-3-4-5-------5---------------4-3-2---0-4-----0-4----

Verse 3: (Repeat Chorus 1)

Verse 4: (Repeat Verse 1)

Chorus 3:  (Repeat Verse 2)

Solo 2:
G|-------------------------------------------------------------1---------
D|---------------------------------------------------------1-4-----------
A|-----2-4------2-4------2-4------2-4------2-4------2-4---2------2-4-5-6-
E|-0-4------0-4------0-4------0-4------0-4------0-4----------------------

G|------6------------------------------------------------------------
D|--6-9---------------7-4--------------------------------------------
A|-7------7-5-4-----------7---4-5-6-7-5-4-2-0-----------2-4------2-4-
E|--------------7---5-------5----------------4-3-2---0-4------0-4----

Last Chorus:
G|------------------------------------------------------------------------
D|-------------------------------------------------------------6--------6-
A|-----2-4------2-4------2-4------2-4------2-4------2-4----6-9------6-9---
E|-0-4------0-4------0-4------0-4------0-4------0-4------7--------7-------

G|----------------------------------------------------------------------
D|---------------------7-4--------------------------------------2-2-2-2-
A|-----2-4------2-4--------7---4-5-6------2-4-2-0----------2-4----------
E|-0-4------0-4------5--------5-------0-4--------4-2---0-4--------------

Outro:                                                              (Chord)
G|-------------------------------------------------------------------------
D|-------------------------4--------4--------------------------------------
A|-----2-4------2-4----4-7------4-7-------2-4-2-0-------------4-5-7------7-
E|-0-4------0-4------5--------5-------0-4--------4---0-3-4-5-7-----------0-

Добавлено: 08.02.2016
Другие материалы по этой песне:
  • Аккорды и текст

Страница создана 08.02.2016
http://primanota.ru/misc-unsigned-bands/tommy-castro-make-it-back-to-memphis-chords.htm
Привет, Гость.
Предлагаем пройти революционный курс по гитаре.
Подарок от PrimaNota.Ru, забирай!