PrimaNota.ru - самый крупный в мире бесплатный архив песенных текстов, аккордов, табулатур и нот


Misc Unsigned Bands - The X-Files - бас-таба, видео

Регистрация Запомнить меня
Войти через:  Facebook Google Twitter Vk Yandex Mail.ru

Misc Unsigned Bands - The X-Files - бас-таба, видео

Печатать
Просмотров: 65
Уроки эстрадного вокала в Санкт-Петербурге
Title: "The X-Files"
Artist: Mark Snow
---------------------------------------------------------------------------------------------------------------

Riff 1:
G|-------9-7-9--/12-9~~--|-------9-7-9--/14-9~~--||
D|----7------------------|----7------------------||
A|-----------------------|-----------------------||
E|-----------------------|-----------------------||


Riff 2:
G|----14-12--9-7-9-------|----14-12--9-7--/12----||
D|------------------9~~--|--------------------9~~||
A|-----------------------|-----------------------||
E|-----------------------|-----------------------||


Outro:
G|----14----------9~~~~--|-----------------------||
D|-----------------------|-----------------------||
A|-----------------------|-----------------------||
E|-----------------------|-----------------------||







Order:

-Riff 1

-Riff 2

-Riff 1

-Outro



Добавлено: 08.02.2016
Другие материалы по этой песне:
  • Аккорды и текст

Страница создана 08.02.2016
http://primanota.ru/misc-unsigned-bands/x-files-chords.htm
Привет, Гость.
Предлагаем пройти революционный курс по гитаре.
Подарок от PrimaNota.Ru, забирай!