PrimaNota.ru - самый крупный в мире бесплатный архив песенных текстов, аккордов, табулатур и нот


Misc Unsigned Bands - Spag Heddy - Here We Go - таба, бас-таба

Регистрация Запомнить меня
Войти через:  Facebook Google Twitter Vk Yandex Mail.ru

Misc Unsigned Bands - Spag Heddy - Here We Go - таба, бас-таба

Печатать
Просмотров: 111
SPAG HEDDY - "HERE WE GO"

tabbed by: Hans Lindig
e-mail: hali271298@gmail.com

This song has a swinging sixteenths rhythm, so two sixteenths after another mean an eigth and a sixteenth
within a triplet and so on.

You will find the bass accompaniment in an extra tab because I wanted bassists who want to play this song
to see at first glance if there is a bass tab or not.

The main riff can also be played an octave higher if you want.

Concerning the first part of the drop: I've mainly written the fills that occur after two bars each. The
stuff in between is basically the note A with a lot of effects.

LEGEND
          Q - quarter
          E - eighth
          S - sixteenth
5/7 or 5//7 - legato slide
         /5 - slide in from below
         5\ - slide out downwards
4b5 or 4b=4 - bend
        5r4 - release

Main riff
   Q    Q    E  S S E  E    Q    E.  E  S E  E  E
e|------------------------|------------------------|
B|------------------------|------------------------|
G|------------------------|----------5--5-4--------|
D|------7----7--7-7-7--5--|------7-----------5-----|
A|-7----------------------|-8-------------------8--|
E|------------------------|------------------------|

   Q    Q    E  S S E  E    Q    E.   E  S E  S S E
e|------------------------|--------------------------|
B|------------------------|-----------------------6--|
G|------------------------|-----------5--5-4--7-7----|
D|------7----7--7-7-7--5--|------10\7----------------|
A|-7----------------------|-8------------------------|
E|------------------------|--------------------------|


Main riff - Variation I
   Q    Q    E  S S E  E    Q    E.  E  S E  E  E
e|------------------------|------------------------|
B|------------------------|------------------------|
G|------------------------|----------5--5-4--------|
D|------7----7--7-7-7--5--|------7-----------5-----|
A|-7----------------------|-8-------------------8--|
E|------------------------|------------------------|

   Q    Q    E  S S E  E    Q    E.   E  S E  E  E
e|------------------------|-------------------------|
B|------------------------|-------------------6--5--|
G|------------------------|-----------5--5-4--------|
D|------7----7--7-7-7--5--|------10\7---------------|
A|-7----------------------|-8-----------------------|
E|------------------------|-------------------------|


Main riff - Variation II
   Q    Q    E  S S E  E    Q    E.  E  S E  E  E
e|------------------------|------------------------|
B|------------------------|------------------------|
G|------------------------|----------5--5-4--------|
D|------7----7--7-7-7--5--|------7-----------5-----|
A|-7----------------------|-8-------------------8--|
E|------------------------|------------------------|


   Q    Q    E  S S E  E    Q    E.  E  S E  E  E
e|------------------------|---------------------5--|
B|------------------------|------------------5-----|
G|---------------------4--|-5----7---5--5-4--------|
D|------7----7--7-7-7-----|------------------------|
A|-7----------------------|------------------------|
E|------------------------|------------------------|


Verse I
   Q    Q    E  S S E  E    Q    Q    E  S S E  E
e|------------------------|------------------------|
B|------------------------|------------------------|
G|------------------------|------------------------|
D|------7----7--7-7-7--7--|------7----7--7-7-7--7--|
A|-7----------------------|-7----------------------|
E|------------------------|------------------------|

   Q    Q    Q    Q      E  E  E  E  H
e|---------------------|-------------------------|
B|---------------------|-------------------------|
G|---------------------|-------------------------|
D|------7---------7----|-------------------------|
A|-7---------7---------|-7--7--7--7--------------|
E|---------------------|-------------------------|


DROP - Fill I = Fill III
   H         S  S  S  S  E   E
e|-----------------------15--13--|
B|-----------17-18-15-17---------|
G|-------------------------------|
D|-------------------------------|
A|-------------------------------|
E|-------------------------------|


DROP - Fill II                      (variation during second drop:)
   Q.    S  S  E   S  S  E   E        Q.    S  S  E   E   E   E
e|-------15-13-12----------------| e|-------15-13-12--------------|
B|-----------------15----13--12--| B|---------------------13--12--|
G|--------------------14---------| G|-----------------14----------|
D|-------------------------------| D|-----------------------------|
A|-------------------------------| A|-----------------------------|
E|-------------------------------| E|-----------------------------|


DROP - Fill IV                    (during second drop:)
   Q.    S  S  E   E   E   E        Q.    S  S  E   E   Q
e|-------17--------17--19--20--| e|-----------------------------|
B|----------18-17--------------| B|-------17----15--------------|
G|-----------------------------| G|----------17-----17--16------|
D|-----------------------------| D|-----------------------------|
A|-----------------------------| A|-----------------------------|
E|-----------------------------| E|-----------------------------|


DROP - Bars 9-10
   Q    E  E  E  E  Q      Q.    E  E  E  Q
e|------------------------|------------------------|
B|------------------------|------/13-15------------|
G|------9//14-14----14----|----------------12------|
D|-7----------------------|-------------15---------|
A|-0----------------------|------------------------|
E|------------------------|------------------------|


DROP - Bars 11-12
   E  E  E  E  Q    Q
e|--------------------------|
B|--------------------------|
G|--------------------------|
D|--------------------------|
A|--------------------------|
E|-5-----5--4--5----6b6.5r6-|

   E  E  E  E  E  very fast...................................
e|------------------------27----------27----------27--------27-|
B|----------------------27----------27----------27--------27---|
G|--------------------27----------27----------27--------27-----|
D|-------------5----29----------29----------29--------29-------|
A|-5-(0)-3--5-----29----------29----------29--------29---------|
E|-------------------------------------------------------------|


DROP - Bars 13-14
   Q    E  E  E  E  Q      Q.    E  E  E  Q
e|------------------------|------/15-17------------|
B|-----------(10)---10----|-------------13-15------|
G|------------------------|------------------------|
D|-7----5//7--7-----7-----|------------------------|
A|-0----------------------|------------------------|
E|------------------------|------------------------|

DROP - Bars 15-16
   Q    E   E  E  E  Q      E  E  E  E  E  E  E  E
e|------------------------|-------------------------|
B|------------------------|----------------3--------|
G|------------------------|-------------------5-----|
D|-7----------------------|-------------3-------(5)-|
A|-0----------------------|-5-----3--5--------------|
E|------4b5r4b=5r=4b=6----|-------------------------|

Main riff - Variation III
   Q    Q    E  S S E  E    Q    E.  E  S E  E  E
e|------------------------|------------------------|
B|------------------------|------------------------|
G|------------------------|----------5--5-4--------|
D|------7----7--7-7-7--5--|------7-----------5-----|
A|-7----------------------|-8-------------------8--|
E|------------------------|------------------------|

   Q    Q    E  S S E  E    Q    E.   E  S E  E  E
e|------------------------|-------------------8\-7\-|
B|------------------------|-------------------------|
G|------------------------|-----------5--5-4--------|
D|------7----7--7-7-7--5--|------10\7---------------|
A|-7----------------------|-8-----------------------|
E|------------------------|-------------------------|

Verse II
   Q    Q    E  S S E  E    Q    Q    E  S S E  E
e|------------------------|------------------------|
B|------------------------|------------------------|
G|------------------------|------------------------|
D|------7----7--7-7-7--7--|------7----7--7-7-10-9--|
A|-7----------------------|-7----------------------|
E|------------------------|------------------------|

   Q    Q    Q    Q      E  E  E  E  H
e|---------------------|-------------------------|
B|---------------------|-------------------------|
G|---------------------|-------------------------|
D|------7---------7----|-------------------------|
A|-7---------7---------|-7--7--7--7--------------|
E|---------------------|-------------------------|

*DROP AGAIN*


Piano Accompaniment (plays throughout the song)
   E  E  E  E  E  E  E  E  E  E  E  E  E  E  E  E
e|----17----17----17----17----17----17----18----15-|
B|----17----17----17----17----18----18----20----17-|
G|----17----17----17----17----19----19----21----16-|
D|-------------------------------------------------|
A|-------------------------------------------------|
E|-------------------------------------------------|

The order I've noted the tabs in is also the song structure except for the drop which is of course played
twice apart from some variations.

Hope you enjoyed the tab! Please comment and/or rate.
Добавлено: 08.02.2016
Другие материалы по этой песне:
  • Аккорды и текст

Страница создана 08.02.2016
http://primanota.ru/misc-unsigned-bands/spag-heddy-here-we-go-chords.htm
Привет, Гость.
Предлагаем пройти революционный курс по гитаре.
Подарок от PrimaNota.Ru, забирай!