PrimaNota.ru - самый крупный в мире бесплатный архив песенных текстов, аккордов, табулатур и нот


Misc Unsigned Bands - Guido Luciani - Nocturno - таба

Регистрация Запомнить меня
Войти через:  Facebook Google Twitter Vk Yandex Mail.ru

Misc Unsigned Bands - Guido Luciani - Nocturno - таба

Печатать
Просмотров: 46
                                Nocturno
                              Guido Luciani



E---|-------0-|-------0-|-------0-|---------|--------------|--|
B---|-----0---|-----0---|-----0---|-----0---|--------------|--|
G---|---5-----|---4-----|---2-----|---1-----|--------------|--|
D---|-7-------|-5-------|-3-------|-2-------|---3p2p0h2----|--|
A---|---------|---------|---------|---------|--------------|--|
E---|---------|---------|---------|---------|--------------|--|



E-----0---|-------0-|-------0-|---------0-|----0------|-------|
B-----0---|-----0---|-----0---|-------0---|----0------|-------|
G-----1---|---5-----|---4-----|-----2-----|----1------|-------|
D---------|-7-------|-5-------|---3-------|-2---------|-------|
A---------|---------|---------|-----------|-----------|-------|
E---------|---------|---------|-----------|-----------|-------|



E----------------|-------0-|-------0-|-------0-|-------0-|-------0-|-------|
B----------------|-----0---|-----0---|-----0---|-----0---|-----0---|-------|
G----------------|---1-----|---1-----|---1-----|---1-----|---1-----|-------|
D----3p2p0h2-----|-2-------|-3-------|-2-------|-0-------|---------|-------|
A----------------|---------|---------|---------|---------|-3-------|-------|
E----------------|---------|---------|---------|---------|---------|-------|


                                                  (E)
E-------------0-|-------0-|-------0-|-------0-|----0--0-----|-------------|
B-----------0---|-----0---|-----0---|-----0---|----0--0-----|-------------|
G---------1-----|---1-----|---1-----|---0-----|----1--2-----|-------------|
D---------------|---------|---------|---------|----2--3-----|-------------|
A-------2-------|-0-------|---------|---------|----2--3-----|-------------|
E---------------|---------|-4-------|-1-------|-0-----------|-------------|


      (E)
E------0--0-----|---------0-|--------0-|-------0-|-------0-|-------0-|----|
B------0--0-----|-------0---|------0---|-----0---|-----0---|-----0---|----|
G------1--2-----|----10-----|----9-----|---7-----|---5-----|---4-----|----|
D------2--3-----|-12--------|-10-------|-9-------|-7-------|-6-------|----|
A------2--3-----|-----------|----------|---------|---------|---------|----|
E---0-----------|-----------|----------|---------|---------|---------|----|



E---------0-|-------0-|-------0-|-------0-|-------0-|-------0-|---------|
B-------0---|-----0---|-----0---|-----0---|-----0---|-----0---|---------|
G-----2-----|---1-----|---1-----|---1-----|---2-----|---1-----|---------|
D---3-------|-2-------|-0-------|-2-------|-3-------|-2-------|---------|
A-----------|---------|---------|---------|---------|---------|---------|
E-----------|---------|---------|---------|---------|---------|---------|



E---------0-|---------|---------0-|--------0---|-------0-|-------0-|----|
B-------0---|---------|-------0---|------0-----|-----0---|-----0---|----|
G-----1-----|---------|----10-----|----9-------|---7-----|---5-----|----|
D---0-------|-2-------|-12--------|-10---------|-9-------|-7-------|----|
A-----------|---------|-----------|------------|---------|---------|----|
E-----------|---------|-----------|------------|---------|---------|----|



E---------0-|-------0-|-------0-|-------0-|-------0-|-------0-|---------|
B-------0---|-----0---|-----0---|-----0---|-----0---|-----0---|---------|
G-----4-----|---2-----|---1-----|---2-----|---1-----|---1-----|---------|
D---6-------|-3-------|-2-------|-3-------|-2-------|-0-------|---------|
A-----------|---------|---------|---------|---------|---------|---------|
E-----------|---------|---------|---------|---------|---------|---------|



E---------0-|-------0-|-------0-|-------0-|-------0-|-------0-|---------|
B-------0---|-----0---|-----0---|-----0---|-----0---|-----0---|---------|
G-----1-----|---1-----|---1-----|---1-----|---1-----|---1-----|---------|
D---2-------|-0-------|---------|---------|---------|---------|---------|
A-----------|---------|-3-------|-2-------|-0-------|---------|---------|
E-----------|---------|---------|---------|---------|-4-------|---------|


                (E)   (E7)
E---------0-|----0--0--0-|-------|-----------|---8-----|-7-----|-8-----|---|
B-------0---|----0--0--3-|-------|-5h6p5p4-5-|-----5---|---5---|---5---|---|
G-----0-----|----1--2--1-|-------|-----------|-------5-|-----5-|-----5-|---|
D-----------|----2--3--2-|-------|-----------|---------|-------|-------|---|
A-----------|----2--3--2-|-------|-----------|---------|-------|-------|---|
E---1-------|-0--------0-|-------|-----------|-5-------|-------|-------|---|



E---5-----|-5-----|-5-----|---------|-------|-------|-5-----|-----------|
B-----5---|---5---|---5---|---6-----|-5-----|-6-----|---6---|-----------|
G-------5-|-----7-|-----7-|-----7---|---7---|---7---|-----7-|-----------|
D---------|-------|-------|-------7-|-----7-|-----7-|-------|-----------|
A---------|-------|-------|-5-------|-------|-------|-------|-----------|
E---------|-------|-------|---------|-------|-------|-------|-----------|



E---5-----5-|---4-----|-5-----|-4----|-1-----|-0-----|-------|---------|-|
B-----6-----|-----3---|---3---|---3--|---0---|---0---|-3-----|---3-----|-|
G-------7---|-------4-|-----4-|----4-|-----2-|-----2-|---2---|-----2---|-|
D-----------|---------|-------|------|-------|-------|-----2-|-------2-|-|
A-----------|---------|-------|------|-------|-------|-------|-0-------|-|
E-----------|-0-------|-------|------|-------|-------|-------|---------|-|



E---------|-------|-------|-------|-------|---8-----|-7-----|-8-----|---|
B---1-----|-0-----|-1-----|-0-----|-0-----|-----5---|---5---|---5---|---|
G-----2---|---2---|---2---|---1---|---1---|-------5-|-----5-|-----5-|---|
D-------2-|-----2-|-----2-|-----2-|-----2-|---------|-------|-------|---|
A---------|-------|-------|-------|-------|---------|-------|-------|---|
E---------|-------|-------|-------|-------|-5-------|-------|-------|---|



E---5-----|-------|-------|---------|-------|-------|-5-----|-----------|
B-----5---|-5-----|-5-----|---6-----|-5-----|-6-----|---6---|-----------|
G-------5-|---5---|---5---|-----7---|---7---|---7---|-----7-|-----------|
D---------|-----7-|-----7-|-------7-|-----7-|-----7-|-------|-----------|
A---------|-------|-------|-5-------|-------|-------|-------|-----------|
E---------|-------|-------|---------|-------|-------|-------|-----------|



E---5-----5-|---4-----|-5-----|-4-----|-7-----|-8-----|-7-----|---7-----|--|
B-----6-----|-----3---|---3---|---3---|---6---|---6---|---6---|-----5---|--|
G-------7---|-------4-|-----4-|-----4-|-----7-|-----7-|-----7-|-------5-|--|
D-----------|---------|-------|-------|-------|-------|-------|---------|--|
A-----------|---------|-------|-------|-------|-------|-------|-0-------|--|
E-----------|-0-------|-------|-------|-------|-------|-------|---------|--|



E---5-----|-4-----|-5-----|-5-------|---8-----|-7-----|-8-----|---------|
B-----5---|---5---|---5---|---5---5-|-----5---|---5---|---5---|---------|
G-------5-|-----5-|-----5-|-----7---|-------5-|-----5-|-----5-|---------|
D---------|-------|-------|---------|---------|-------|-------|---------|
A---------|-------|-------|---------|---------|-------|-------|---------|
E---------|-------|-------|---------|-5-------|-------|-------|---------|



E---5-----|-5-----|-5-----|---------|-------|-------|-5-----|-----------|
B-----5---|---5---|---5---|---6-----|-5-----|-6-----|---6---|-----------|
G-------5-|-----7-|-----7-|-----7---|---7---|---7---|-----7-|-----------|
D---------|-------|-------|-------7-|-----7-|-----7-|-------|-----------|
A---------|-------|-------|-5-------|-------|-------|-------|-----------|
E---------|-------|-------|---------|-------|-------|-------|-----------|



E---5-----5-|---4-----|-5-----|4----|-1-----|-0-----|-------|---------|-|
B-----6-----|-----3---|---3---|--3--|---0---|---0---|-3-----|---3-----|-|
G-------7---|-------4-|-----4-|----4|-----2-|-----2-|---2---|-----2---|-|
D-----------|---------|-------|-----|-------|-------|-----2-|-------2-|-|
A-----------|---------|-------|-----|-------|-------|-------|-0-------|-|
E-----------|-0-------|-------|-----|-------|-------|-------|---------|-|



E---------|-------|-------|-------|-------|---8-----|-7-----|-8-----|---|
B---1-----|-0-----|-1-----|-0-----|-0-----|-----5---|---5---|---5---|---|
G-----2---|---2---|---2---|---1---|---1---|-------5-|-----5-|-----5-|---|
D-------2-|-----2-|-----2-|-----2-|-----2-|---------|-------|-------|---|
A---------|-------|-------|-------|-------|---------|-------|-------|---|
E---------|-------|-------|-------|-------|-5-------|-------|-------|---|



E---5-----|-------|-------|---------|-------|-------|-5-----|-----------|
B-----5---|-5-----|-5-----|---6-----|-5-----|-6-----|---6---|-----------|
G-------5-|---5---|---5---|-----7---|---7---|---7---|-----7-|-----------|
D---------|-----7-|-----7-|-------7-|-----7-|-----7-|-------|-----------|
A---------|-------|-------|-5-------|-------|-------|-------|-----------|
E---------|-------|-------|---------|-------|-------|-------|-----------|



E---5-----5-|---4-----|-5-----|-4------|-7-----|-8-----|-7-----|---7-----|-|
B-----6-----|-----3---|---3---|---3----|---6---|---6---|---6---|-----5---|-|
G-------7---|-------4-|-----4-|-----4--|-----7-|-----7-|-----7-|-------5-|-|
D-----------|---------|-------|--------|-------|-------|-------|---------|-|
A-----------|---------|-------|--------|-------|-------|-------|-0-------|-|
E-----------|-0-------|-------|--------|-------|-------|-------|---------|-|



E---5-----|-4-----|-5-----|-5-------|---------|-------|-------|---------|
B-----5---|---5---|---5---|---5---5-|---6-----|-5-----|-6-----|---------|
G-------5-|-----5-|-----5-|-----7---|-----7---|---7---|---7---|---------|
D---------|-------|-------|---------|-------7-|-----7-|-----7-|---------|
A---------|-------|-------|---------|-5-------|-------|-------|---------|
E---------|-------|-------|---------|---------|-------|-------|---------|



E---5-----|-5-----|-5-----|---------|-------|-------|-5-----|-----------|
B-----6---|---6---|---6---|---5-----|-4-----|-5-----|---5---|-----------|
G-------7-|-----7-|-----7-|-----5---|---5---|---5---|-----5-|-----------|
D---------|-------|-------|-------7-|-----7-|-----7-|-------|-----------|
A---------|-------|-------|-0-------|-------|-------|-------|-----------|
E---------|-------|-------|---------|-------|-------|-------|-----------|



E---5-----5-|---0-----|-------|-------|-------|---------|-------|-------|
B-----5-----|-----0---|-3-----|-0-----|-3-----|-1-------|-1-----|-------|
G-------5---|-------1-|---1---|---1---|---2---|---2---2-|---1---|-------|
D-----------|---------|-----2-|-----2-|-----2-|-----2---|-----2-|-------|
A-----------|---------|-------|-------|-------|---------|-------|-------|
E-----------|-0-------|-------|-------|-------|---------|-------|-------|



E---------|---------|-------|-------|-5-----|-5-----|-5-----|-----------|
B---0-----|---6-----|-5-----|-6-----|---6---|---6---|---6---|-----------|
G-----1---|-----7---|---7---|---7---|-----7-|-----7-|-----7-|-----------|
D-------2-|-------7-|-----7-|-----7-|-------|-------|-------|-----------|
A---------|-5-------|-------|-------|-------|-------|-------|-----------|
E---------|---------|-------|-------|-------|-------|-------|-----------|



E-----------|-------|-------|-5-----|-5-----5-|---------|-------|-------|
B-----5-----|-4-----|-5-----|---5---|---5-----|---4-----|-3-----|-------|
G-------5---|---5---|---5---|-----5-|-----5---|-----2---|---2---|-------|
D---------7-|-----7-|-----7-|-------|---------|-------4-|-----4-|-------|
A---0-------|-------|-------|-------|---------|-2-------|-------|-------|
E-----------|-------|-------|-------|---------|---------|-------|-------|



E---------|-2-----|-5-----|-5-----|---4-----|-5-----|-4-----|-1-----|---|
B---4-----|---4---|---4---|---4---|-----3---|---3---|---3---|---0---|---|
G-----2---|-----2-|-----2-|-----2-|-------4-|-----4-|-----4-|-----2-|---|
D-------4-|-------|-------|-------|---------|-------|-------|-------|---|
A---------|-------|-------|-------|---------|-------|-------|-------|---|
E---------|-------|-------|-------|-0-------|-------|-------|-------|---|



E---0-----|---------|-0---------|-0-|-------0-|-------0-|-------0-|-----|
B-----0---|-3-------|-3---------|-0-|-----0---|-----0---|-----0---|-----|
G-------2-|---2-----|-1---------|-1-|---5-----|---4-----|---2-----|-----|
D---------|-----2-3-|-2-3p2p0-2-|---|-7-------|-5-------|-3-------|-----|
A---------|---------|-2---------|---|---------|---------|---------|-----|
E---------|---------|-----------|---|---------|---------|---------|-----|



E-----0-|---------|-------0-|-------0-|-------0-|-------0-|-------0-|---|
B-----0-|---------|-----0---|-----0---|-----0---|-----0---|-----0---|---|
G-----1-|---------|---1-----|---1-----|---1-----|---1-----|---1-----|---|
D---2---|-3p2p0-2-|-2-------|-3-------|-2-------|-0-------|---------|---|
A-------|---------|---------|---------|---------|---------|-3-------|---|
E-------|---------|---------|---------|---------|---------|---------|---|


                                            (E7)  TAP
E---------0-|-------0-|-------0-|-------0-|---0---|-|-----------|-----|
B-------0---|-----0---|-----0---|-----0---|---3---|-|-5h6p5p4h5-|-----|
G-----1-----|---1-----|---1-----|---0-----|---1---|-|-----------|-----|
D-----------|---------|---------|---------|---2---|-|-----------|-----|
A---2-------|-0-------|---------|---------|---2---|-|-----------|-----|
E-----------|---------|-4-------|-1-------|-0-----|-|-----------|-----|



E-----8-----|-7-----|-8-----|-5-----|-------|-------|---------|---------|
B-------5---|---5---|---5---|---5---|-5-----|-5-----|---6-----|---------|
G---------5-|-----5-|-----5-|-----5-|---5---|---5---|-----7---|---------|
D-----------|-------|-------|-------|-----7-|-----7-|-------7-|---------|
A-----------|-------|-------|-------|-------|-------|-5-------|---------|
E---5-------|-------|-------|-------|-------|-------|---------|---------|



E---------|-------|-5-----|-5-----5-|---4-----|-5-----|-4-----|-1-----|-|
B---5-----|-6-----|---6---|---6-----|-----3---|---3---|---3---|---0---|-|
G-----7---|---7---|-----7-|-----7---|-------4-|-----4-|-----4-|-----2-|-|
D-------7-|-----7-|-------|---------|---------|-------|-------|-------|-|
A---------|-------|-------|---------|---------|-------|-------|-------|-|
E---------|-------|-------|---------|-0-------|-------|-------|-------|-|



E---0-----|-------|---------|-------|-------|-------|-------|-------|---|
B-----0---|-3-----|---3-----|-1-----|-0-----|-1-----|-0-----|-0-----|---|
G-------2-|---2---|-----2---|---2---|---2---|---2---|---1---|---1---|---|
D---------|-----2-|-------2-|-----2-|-----2-|-----2-|-----2-|-----2-|---|
A---------|-------|-0-------|-------|-------|-------|-------|-------|---|
E---------|-------|---------|-------|-------|-------|-------|-------|---|



E-----8-----|-7-----|-8-----|-5-----|-------|-------|---------|---------|
B-------5---|---5---|---5---|---5---|-5-----|-5-----|---6-----|---------|
G---------5-|-----5-|-----5-|-----5-|---5---|---5---|-----7---|---------|
D-----------|-------|-------|-------|-----7-|-----7-|-------7-|---------|
A-----------|-------|-------|-------|-------|-------|-5-------|---------|
E---5-------|-------|-------|-------|-------|-------|---------|---------|



E---------|-------|-5-----|-5-----5-|---4-----|-5-----4-|-7-----|-------|
B---5-----|-6-----|---6---|---6-----|-----3---|---3-----|---6---|-------|
G-----7---|---7---|-----7-|-----7---|-------4-|-----4---|-----7-|-------|
D-------7-|-----7-|-------|---------|---------|---------|-------|-------|
A---------|-------|-------|---------|---------|---------|-------|-------|
E---------|-------|-------|---------|-0-------|---------|-------|-------|


                                                   Strum-Up
E---8-----|-7-----|-10------|-12------|-10------12-|---4---|---------0-|----|
B-----6---|---6---|----9----|----9----|----9-------|---6---|-------0---|----|
G-------7-|-----7-|------10-|------10-|------10----|---4---|----10-----|----|
D---------|-------|---------|---------|------------|---6---|-12--------|----|
A---------|-------|---------|---------|------------|---5---|-----------|----|
E---------|-------|---------|---------|------------|---0---|-----------|----|



E----------0-|-------0-|-------0-|-------0-|-------0-|-------0-|--------|
B--------0---|-----0---|-----0---|-----0---|-----0---|-----0---|--------|
G------9-----|---7-----|---5-----|---4-----|---2-----|---1-----|--------|
D---10-------|-9-------|-7-------|-6-------|-3-------|-2-------|--------|
A------------|---------|---------|---------|---------|---------|--------|
E------------|---------|---------|---------|---------|---------|--------|



E---------0-|-------0-|-------0-|-------0-|-------0-|-------0-|------0--|
B-------0---|-----0---|-----0---|-----0---|-----0---|-----0---|----0----|
G-----1-----|---1-----|---1-----|---1-----|---1-----|---1-----|--1------|
D---0-------|-2-------|-3-------|-2-------|-0-------|---------|---------|
A-----------|---------|---------|---------|---------|-3-------|-2-------|
E-----------|---------|---------|---------|---------|---------|---------|


                                                                        
                                                                        
E-------0-|-------0-|-------0-|-----0-|--------|0-4-7-5-|----5-------|
B-----0---|-----0---|-----0---|-----0-|----0-1-|--------|----5-------|
G---1-----|---1-----|---0-----|-----1-|---2----|--------|----5-------|
D---------|---------|---------|-----2-|--2-----|--------|----7-------|
A-0-------|---------|---------|-----2-|-0------|--------|-0----------|
E---------|-4-------|-1-------|-0-----|--------|--------|------------|



=====================================
----h------| Hammeron
-----------|
----p------| Pulloff
=====================================
Добавлено: 04.11.2013
Другие материалы по этой песне:
  • Аккорды и текст

Страница создана 04.11.2013
http://primanota.ru/misc-unsigned-bands/guido-luciani-nocturno-chords.htm
Привет, Гость.
Предлагаем пройти революционный курс по гитаре.
Подарок от PrimaNota.Ru, забирай!